  0
SECTION
  2
HEADER
  9
$ACADVER
  1
AC1006
  9
$AXISMODE
 70
     0
  9
$AXISUNIT
 10
0.0625
 20
0.0625
  9
$CECOLOR
 62
0
  9
$CELTYPE
  6
CONTINUOUS
  9
$CLAYER
  8
LAYER1
  9
$EXTMIN
 10
0
 20
0
  9
$EXTMAX
 10
14.3785
 20
10.8728
  9
$LIMMIN
 10
0
 20
0
  9
$LIMMAX
 10
14.3785
 20
10.8728
  9
$GRIDMODE
 70
     0
  9
$GRIDUNIT
 10
0.125
 20
0.125
  9
$MIRRTEXT
 70
     1
  9
$SNAPMODE
 70
     1
  9
$SNAPUNIT
 10
0.125
 20
0
  9
$SNAPSTYLE
 70
     0
  9
$SPLINESEGS
 70
     8
  9
$SPLINETYPE
 70
     6
  0
ENDSEC
  0
SECTION
  2
TABLES
  0TABLE  2VPORT 70     2  0VPORT  2*ACTIVE 70     0 100.0 200.0 111.0 211.0 1213.01087 224.5 130.0 230.0 141.0 241.0 150.0 250.0 160.0 260.0 361.0 170.0 270.0 370.0 409.0 412.891304 4250.0 430.0 440.0 500.0 510.0 71     0 72   100 73     1 74     1 75     0 76     0 77     0 78     0  0ENDTAB
  0
TABLE
  2
LTYPE
 70
     1
  0
LTYPE
  2
CONTINUOUS
 70
    64
  3
Descriptive Text
 72
    65
 73
     0
 40
0
  0
ENDTAB
  0
TABLE
  2
LAYER
 70
     1
  0
LAYER
  2
LAYER1
 70
     0
 62
     7
  6
CONTINUOUS
  0
ENDTAB
  0TABLE  2STYLE 70     1  0STYLE  2STANDARD 70     0 400.0 411.0 500.0 71     0 420.2  3txt  4  0ENDTAB
  0
TABLE
  2
VIEW
 70
     0
  0
ENDTAB
  0
TABLE
  2
UCS
 70
     0
  0
ENDTAB
  0
TABLE
  2
DWGMGR
 70
     0
  0
ENDTAB
  0
ENDSEC
  0
SECTION
  2
BLOCKS
  0
BLOCK
  8
LAYER1
  2
Group1
 70
     0
 10
0
 20
0
 30
0
  0
LINE
  8
LAYER1
  6
CONTINUOUS
 62
     7
 10
0.2083
 20
10.5256
 30
0
 11
4.7083
 21
10.5256
 31
0
  0
LINE
  8
LAYER1
  6
CONTINUOUS
 62
     7
 10
0.8472
 20
9.0812
 30
0
 11
0.8472
 21
9.8312
 31
0
  0
LINE
  8
LAYER1
  6
CONTINUOUS
 62
     7
 10
0.8472
 20
9.0812
 30
0
 11
1.1806
 21
9.0812
 31
0
  0
POLYLINE
  8
LAYER1
  6
CONTINUOUS
 62
     7
 66
     1
 70
     0
 40
0.001
 41
0.001
  0
VERTEX
  8
LAYER1
 10
0.9306
 20
9.1228
 30
0
 70
     0
  0
VERTEX
  8
LAYER1
 10
0.9109
 20
9.131
 30
0
 70
     0
  0
VERTEX
  8
LAYER1
 10
0.9028
 20
9.1506
 30
0
 70
     0
  0
SEQEND
  0
POLYLINE
  8
LAYER1
  6
CONTINUOUS
 62
     7
 66
     1
 70
     0
 40
0.001
 41
0.001
  0
VERTEX
  8
LAYER1
 10
0.8611
 20
9.8312
 30
0
 70
     0
  0
VERTEX
  8
LAYER1
 10
0.8826
 20
9.8268
 30
0
 70
     0
  0
VERTEX
  8
LAYER1
 10
0.9003
 20
9.8148
 30
0
 70
     0
  0
VERTEX
  8
LAYER1
 10
0.9123
 20
9.7971
 30
0
 70
     0
  0
VERTEX
  8
LAYER1
 10
0.9167
 20
9.7756
 30
0
 70
     0
  0
SEQEND
  0
LINE
  8
LAYER1
  6
CONTINUOUS
 62
     7
 10
0.9028
 20
9.1506
 30
0
 11
0.9028
 21
9.7895
 31
0
  0
POLYLINE
  8
LAYER1
  6
CONTINUOUS
 62
     7
 66
     1
 70
     0
 40
0.001
 41
0.001
  0
VERTEX
  8
LAYER1
 10
1.1389
 20
9.1228
 30
0
 70
     0
  0
VERTEX
  8
LAYER1
 10
1.1604
 20
9.1184
 30
0
 70
     0
  0
VERTEX
  8
LAYER1
 10
1.1781
 20
9.1065
 30
0
 70
     0
  0
VERTEX
  8
LAYER1
 10
1.19
 20
9.0888
 30
0
 70
     0
  0
VERTEX
  8
LAYER1
 10
1.1944
 20
9.0673
 30
0
 70
     0
  0
SEQEND
  0
ENDBLK
  8
LAYER1
  0
BLOCK
  8
LAYER1
  2
Group2
 70
     0
 10
0
 20
0
 30
0
  0
LINE
  8
LAYER1
  6
CONTINUOUS
 62
     7
 10
0.9167
 20
9.1228
 30
0
 11
1.1389
 21
9.1228
 31
0
  0
LINE
  8
LAYER1
  6
CONTINUOUS
 62
     7
 10
1.1111
 20
9.0812
 30
0
 11
1.1528
 21
9.1228
 31
0
  0
LINE
  8
LAYER1
  6
CONTINUOUS
 62
     7
 10
0.9861
 20
9.0812
 30
0
 11
1.0278
 21
9.1228
 31
0
  0
LINE
  8
LAYER1
  6
CONTINUOUS
 62
     7
 10
0.8472
 20
9.0812
 30
0
 11
0.9028
 21
9.1367
 31
0
  0
LINE
  8
LAYER1
  6
CONTINUOUS
 62
     7
 10
0.8472
 20
9.2201
 30
0
 11
0.9028
 21
9.2617
 31
0
  0
LINE
  8
LAYER1
  6
CONTINUOUS
 62
     7
 10
0.8472
 20
9.3451
 30
0
 11
0.9028
 21
9.4006
 31
0
  0
LINE
  8
LAYER1
  6
CONTINUOUS
 62
     7
 10
0.8472
 20
9.4839
 30
0
 11
0.9028
 21
9.5256
 31
0
  0
LINE
  8
LAYER1
  6
CONTINUOUS
 62
     7
 10
0.8472
 20
9.6089
 30
0
 11
0.9028
 21
9.6645
 31
0
  0
LINE
  8
LAYER1
  6
CONTINUOUS
 62
     7
 10
0.8472
 20
9.7478
 30
0
 11
0.8889
 21
9.7895
 31
0
  0
LINE
  8
LAYER1
  6
CONTINUOUS
 62
     7
 10
1.1528
 20
9.0812
 30
0
 11
1.1806
 21
9.0951
 31
0
  0
LINE
  8
LAYER1
  6
CONTINUOUS
 62
     7
 10
1.0278
 20
9.0812
 30
0
 11
1.0694
 21
9.1228
 31
0
  0
LINE
  8
LAYER1
  6
CONTINUOUS
 62
     7
 10
0.8889
 20
9.0812
 30
0
 11
0.9444
 21
9.1228
 31
0
  0
LINE
  8
LAYER1
  6
CONTINUOUS
 62
     7
 10
0.8472
 20
9.1645
 30
0
 11
0.9028
 21
9.2201
 31
0
  0
LINE
  8
LAYER1
  6
CONTINUOUS
 62
     7
 10
0.8472
 20
9.3034
 30
0
 11
0.9028
 21
9.3451
 31
0
  0
LINE
  8
LAYER1
  6
CONTINUOUS
 62
     7
 10
0.8472
 20
9.4423
 30
0
 11
0.9028
 21
9.4839
 31
0
  0
LINE
  8
LAYER1
  6
CONTINUOUS
 62
     7
 10
0.8472
 20
9.5673
 30
0
 11
0.9028
 21
9.6228
 31
0
  0
ENDBLK
  8
LAYER1
  0
BLOCK
  8
LAYER1
  2
Group3
 70
     0
 10
0
 20
0
 30
0
  0
INSERT
  8
LAYER1
  2
Group1
 10
0
 20
0
 30
0
  0
INSERT
  8
LAYER1
  2
Group2
 10
0
 20
0
 30
0
  0
ENDBLK
  8
LAYER1
  0
BLOCK
  8
LAYER1
  2
Group4
 70
     0
 10
0
 20
0
 30
0
  0
LINE
  8
LAYER1
  6
CONTINUOUS
 62
     7
 10
0.8472
 20
9.7062
 30
0
 11
0.9028
 21
9.7478
 31
0
  0
LINE
  8
LAYER1
  6
CONTINUOUS
 62
     7
 10
0.6806
 20
7.2617
 30
0
 11
0.6806
 21
7.9284
 31
0
  0
LINE
  8
LAYER1
  6
CONTINUOUS
 62
     7
 10
0.6806
 20
7.2617
 30
0
 11
1.3472
 21
7.2617
 31
0
  0
POLYLINE
  8
LAYER1
  6
CONTINUOUS
 62
     7
 66
     1
 70
     0
 40
0.001
 41
0.001
  0
VERTEX
  8
LAYER1
 10
0.875
 20
7.3173
 30
0
 70
     0
  0
VERTEX
  8
LAYER1
 10
0.8471
 20
7.3201
 30
0
 70
     0
  0
VERTEX
  8
LAYER1
 10
0.8211
 20
7.3283
 30
0
 70
     0
  0
VERTEX
  8
LAYER1
 10
0.7976
 20
7.3411
 30
0
 70
     0
  0
VERTEX
  8
LAYER1
 10
0.777
 20
7.3582
 30
0
 70
     0
  0
VERTEX
  8
LAYER1
 10
0.76
 20
7.3787
 30
0
 70
     0
  0
VERTEX
  8
LAYER1
 10
0.7471
 20
7.4023
 30
0
 70
     0
  0
VERTEX
  8
LAYER1
 10
0.7389
 20
7.4283
 30
0
 70
     0
  0
VERTEX
  8
LAYER1
 10
0.7361
 20
7.4562
 30
0
 70
     0
  0
SEQEND
  0
POLYLINE
  8
LAYER1
  6
CONTINUOUS
 62
     7
 66
     1
 70
     0
 40
0.001
 41
0.001
  0
VERTEX
  8
LAYER1
 10
0.6944
 20
7.9284
 30
0
 70
     0
  0
VERTEX
  8
LAYER1
 10
0.716
 20
7.924
 30
0
 70
     0
  0
VERTEX
  8
LAYER1
 10
0.7336
 20
7.912
 30
0
 70
     0
  0
VERTEX
  8
LAYER1
 10
0.7456
 20
7.8944
 30
0
 70
     0
  0
VERTEX
  8
LAYER1
 10
0.75
 20
7.8728
 30
0
 70
     0
  0
SEQEND
  0
LINE
  8
LAYER1
  6
CONTINUOUS
 62
     7
 10
0.7361
 20
7.4562
 30
0
 11
0.7361
 21
7.8867
 31
0
  0
POLYLINE
  8
LAYER1
  6
CONTINUOUS
 62
     7
 66
     1
 70
     0
 40
0.001
 41
0.001
  0
VERTEX
  8
LAYER1
 10
1.3056
 20
7.3173
 30
0
 70
     0
  0
VERTEX
  8
LAYER1
 10
1.3271
 20
7.3129
 30
0
 70
     0
  0
VERTEX
  8
LAYER1
 10
1.3448
 20
7.3009
 30
0
 70
     0
  0
VERTEX
  8
LAYER1
 10
1.3567
 20
7.2833
 30
0
 70
     0
  0
VERTEX
  8
LAYER1
 10
1.3611
 20
7.2617
 30
0
 70
     0
  0
SEQEND
  0
LINE
  8
LAYER1
  6
CONTINUOUS
 62
     7
 10
1.3472
 20
7.2617
 30
0
 11
1.3472
 21
7.2756
 31
0
  0
ENDBLK
  8
LAYER1
  0
BLOCK
  8
LAYER1
  2
Group5
 70
     0
 10
0
 20
0
 30
0
  0
LINE
  8
LAYER1
  6
CONTINUOUS
 62
     7
 10
0.875
 20
7.3173
 30
0
 11
1.2917
 21
7.3173
 31
0
  0
LINE
  8
LAYER1
  6
CONTINUOUS
 62
     7
 10
1.2778
 20
7.2617
 30
0
 11
1.3194
 21
7.3173
 31
0
  0
LINE
  8
LAYER1
  6
CONTINUOUS
 62
     7
 10
1.1389
 20
7.2617
 30
0
 11
1.1944
 21
7.3173
 31
0
  0
LINE
  8
LAYER1
  6
CONTINUOUS
 62
     7
 10
1.0139
 20
7.2617
 30
0
 11
1.0556
 21
7.3173
 31
0
  0
LINE
  8
LAYER1
  6
CONTINUOUS
 62
     7
 10
0.875
 20
7.2617
 30
0
 11
0.9306
 21
7.3173
 31
0
  0
LINE
  8
LAYER1
  6
CONTINUOUS
 62
     7
 10
0.75
 20
7.2617
 30
0
 11
0.8056
 21
7.3312
 31
0
  0
LINE
  8
LAYER1
  6
CONTINUOUS
 62
     7
 10
0.6806
 20
7.3451
 30
0
 11
0.75
 21
7.4006
 31
0
  0
LINE
  8
LAYER1
  6
CONTINUOUS
 62
     7
 10
0.6806
 20
7.4701
 30
0
 11
0.7361
 21
7.5256
 31
0
  0
LINE
  8
LAYER1
  6
CONTINUOUS
 62
     7
 10
0.6806
 20
7.6089
 30
0
 11
0.7361
 21
7.6645
 31
0
  0
LINE
  8
LAYER1
  6
CONTINUOUS
 62
     7
 10
0.6806
 20
7.7339
 30
0
 11
0.7361
 21
7.7895
 31
0
  0
LINE
  8
LAYER1
  6
CONTINUOUS
 62
     7
 10
0.6806
 20
7.8728
 30
0
 11
0.7222
 21
7.9145
 31
0
  0
LINE
  8
LAYER1
  6
CONTINUOUS
 62
     7
 10
1.3194
 20
7.2617
 30
0
 11
1.3472
 21
7.2895
 31
0
  0
LINE
  8
LAYER1
  6
CONTINUOUS
 62
     7
 10
1.1806
 20
7.2617
 30
0
 11
1.2361
 21
7.3173
 31
0
  0
LINE
  8
LAYER1
  6
CONTINUOUS
 62
     7
 10
1.0556
 20
7.2617
 30
0
 11
1.1111
 21
7.3173
 31
0
  0
LINE
  8
LAYER1
  6
CONTINUOUS
 62
     7
 10
0.9167
 20
7.2617
 30
0
 11
0.9722
 21
7.3173
 31
0
  0
LINE
  8
LAYER1
  6
CONTINUOUS
 62
     7
 10
0.7917
 20
7.2617
 30
0
 11
0.8472
 21
7.3173
 31
0
  0
LINE
  8
LAYER1
  6
CONTINUOUS
 62
     7
 10
0.6806
 20
7.3034
 30
0
 11
0.7639
 21
7.3728
 31
0
  0
LINE
  8
LAYER1
  6
CONTINUOUS
 62
     7
 10
0.6806
 20
7.4284
 30
0
 11
0.7361
 21
7.4839
 31
0
  0
LINE
  8
LAYER1
  6
CONTINUOUS
 62
     7
 10
0.6806
 20
7.5673
 30
0
 11
0.7361
 21
7.6089
 31
0
  0
LINE
  8
LAYER1
  6
CONTINUOUS
 62
     7
 10
0.6806
 20
7.6923
 30
0
 11
0.7361
 21
7.7478
 31
0
  0
ENDBLK
  8
LAYER1
  0
BLOCK
  8
LAYER1
  2
Group6
 70
     0
 10
0
 20
0
 30
0
  0
INSERT
  8
LAYER1
  2
Group4
 10
0
 20
0
 30
0
  0
INSERT
  8
LAYER1
  2
Group5
 10
0
 20
0
 30
0
  0
ENDBLK
  8
LAYER1
  0
BLOCK
  8
LAYER1
  2
Group7
 70
     0
 10
0
 20
0
 30
0
  0
LINE
  8
LAYER1
  6
CONTINUOUS
 62
     7
 10
0.6806
 20
7.8312
 30
0
 11
0.7361
 21
7.8867
 31
0
  0
POLYLINE
  8
LAYER1
  6
CONTINUOUS
 62
     7
 66
     1
 70
     0
 40
0.001
 41
0.001
  0
VERTEX
  8
LAYER1
 10
0.7639
 20
5.7478
 30
0
 70
     0
  0
VERTEX
  8
LAYER1
 10
0.7639
 20
5.0812
 30
0
 70
     0
  0
VERTEX
  8
LAYER1
 10
1.2639
 20
5.0812
 30
0
 70
     0
  0
SEQEND
  0
POLYLINE
  8
LAYER1
  6
CONTINUOUS
 62
     7
 66
     1
 70
     0
 40
0.001
 41
0.001
  0
VERTEX
  8
LAYER1
 10
0.9028
 20
5.1089
 30
0
 70
     0
  0
VERTEX
  8
LAYER1
 10
0.8705
 20
5.1155
 30
0
 70
     0
  0
VERTEX
  8
LAYER1
 10
0.844
 20
5.1335
 30
0
 70
     0
  0
VERTEX
  8
LAYER1
 10
0.826
 20
5.16
 30
0
 70
     0
  0
VERTEX
  8
LAYER1
 10
0.8194
 20
5.1923
 30
0
 70
     0
  0
SEQEND
  0
POLYLINE
  8
LAYER1
  6
CONTINUOUS
 62
     7
 66
     1
 70
     0
 40
0.001
 41
0.001
  0
VERTEX
  8
LAYER1
 10
0.7778
 20
5.7478
 30
0
 70
     0
  0
VERTEX
  8
LAYER1
 10
0.7993
 20
5.7434
 30
0
 70
     0
  0
VERTEX
  8
LAYER1
 10
0.817
 20
5.7315
 30
0
 70
     0
  0
VERTEX
  8
LAYER1
 10
0.8289
 20
5.7138
 30
0
 70
     0
  0
VERTEX
  8
LAYER1
 10
0.8333
 20
5.6923
 30
0
 70
     0
  0
SEQEND
  0
LINE
  8
LAYER1
  6
CONTINUOUS
 62
     7
 10
0.8194
 20
5.6923
 30
0
 11
0.8194
 21
5.2062
 31
0
  0
POLYLINE
  8
LAYER1
  6
CONTINUOUS
 62
     7
 66
     1
 70
     0
 40
0.001
 41
0.001
  0
VERTEX
  8
LAYER1
 10
1.2222
 20
5.1367
 30
0
 70
     0
  0
VERTEX
  8
LAYER1
 10
1.2438
 20
5.1323
 30
0
 70
     0
  0
VERTEX
  8
LAYER1
 10
1.2614
 20
5.1204
 30
0
 70
     0
  0
VERTEX
  8
LAYER1
 10
1.2734
 20
5.1027
 30
0
 70
     0
  0
VERTEX
  8
LAYER1
 10
1.2778
 20
5.0812
 30
0
 70
     0
  0
SEQEND
  0
ENDBLK
  8
LAYER1
  0
BLOCK
  8
LAYER1
  2
Group8
 70
     0
 10
0
 20
0
 30
0
  0
LINE
  8
LAYER1
  6
CONTINUOUS
 62
     7
 10
0.8889
 20
5.1367
 30
0
 11
1.2083
 21
5.1367
 31
0
  0
LINE
  8
LAYER1
  6
CONTINUOUS
 62
     7
 10
1.2361
 20
5.0812
 30
0
 11
1.2639
 21
5.0951
 31
0
  0
LINE
  8
LAYER1
  6
CONTINUOUS
 62
     7
 10
1.1111
 20
5.0812
 30
0
 11
1.1667
 21
5.1367
 31
0
  0
LINE
  8
LAYER1
  6
CONTINUOUS
 62
     7
 10
0.9722
 20
5.0812
 30
0
 11
1.0278
 21
5.1367
 31
0
  0
LINE
  8
LAYER1
  6
CONTINUOUS
 62
     7
 10
0.8472
 20
5.0812
 30
0
 11
0.9028
 21
5.1367
 31
0
  0
LINE
  8
LAYER1
  6
CONTINUOUS
 62
     7
 10
0.7639
 20
5.1367
 30
0
 11
0.8194
 21
5.1923
 31
0
  0
LINE
  8
LAYER1
  6
CONTINUOUS
 62
     7
 10
0.7639
 20
5.2617
 30
0
 11
0.8194
 21
5.3173
 31
0
  0
LINE
  8
LAYER1
  6
CONTINUOUS
 62
     7
 10
0.7639
 20
5.4006
 30
0
 11
0.8194
 21
5.4562
 31
0
  0
LINE
  8
LAYER1
  6
CONTINUOUS
 62
     7
 10
0.7639
 20
5.5395
 30
0
 11
0.8194
 21
5.5812
 31
0
  0
LINE
  8
LAYER1
  6
CONTINUOUS
 62
     7
 10
0.7639
 20
5.6645
 30
0
 11
0.8194
 21
5.7201
 31
0
  0
LINE
  8
LAYER1
  6
CONTINUOUS
 62
     7
 10
1.1528
 20
5.0812
 30
0
 11
1.2083
 21
5.1367
 31
0
  0
LINE
  8
LAYER1
  6
CONTINUOUS
 62
     7
 10
1.0278
 20
5.0812
 30
0
 11
1.0694
 21
5.1367
 31
0
  0
LINE
  8
LAYER1
  6
CONTINUOUS
 62
     7
 10
0.8889
 20
5.0812
 30
0
 11
0.9444
 21
5.1367
 31
0
  0
LINE
  8
LAYER1
  6
CONTINUOUS
 62
     7
 10
0.7639
 20
5.0951
 30
0
 11
0.8333
 21
5.1645
 31
0
  0
LINE
  8
LAYER1
  6
CONTINUOUS
 62
     7
 10
0.7639
 20
5.2201
 30
0
 11
0.8194
 21
5.2756
 31
0
  0
LINE
  8
LAYER1
  6
CONTINUOUS
 62
     7
 10
0.7639
 20
5.3589
 30
0
 11
0.8194
 21
5.4145
 31
0
  0
LINE
  8
LAYER1
  6
CONTINUOUS
 62
     7
 10
0.7639
 20
5.4839
 30
0
 11
0.8194
 21
5.5395
 31
0
  0
ENDBLK
  8
LAYER1
  0
BLOCK
  8
LAYER1
  2
Group9
 70
     0
 10
0
 20
0
 30
0
  0
INSERT
  8
LAYER1
  2
Group7
 10
0
 20
0
 30
0
  0
INSERT
  8
LAYER1
  2
Group8
 10
0
 20
0
 30
0
  0
ENDBLK
  8
LAYER1
  0
BLOCK
  8
LAYER1
  2
Group10
 70
     0
 10
0
 20
0
 30
0
  0
LINE
  8
LAYER1
  6
CONTINUOUS
 62
     7
 10
0.7639
 20
5.6228
 30
0
 11
0.8194
 21
5.6784
 31
0
  0
LINE
  8
LAYER1
  6
CONTINUOUS
 62
     7
 10
0.8472
 20
3.2895
 30
0
 11
0.8472
 21
3.9562
 31
0
  0
LINE
  8
LAYER1
  6
CONTINUOUS
 62
     7
 10
0.8472
 20
3.2895
 30
0
 11
1.1806
 21
3.2895
 31
0
  0
POLYLINE
  8
LAYER1
  6
CONTINUOUS
 62
     7
 66
     1
 70
     0
 40
0.001
 41
0.001
  0
VERTEX
  8
LAYER1
 10
0.9375
 20
3.3173
 30
0
 70
     0
  0
VERTEX
  8
LAYER1
 10
0.924
 20
3.32
 30
0
 70
     0
  0
VERTEX
  8
LAYER1
 10
0.913
 20
3.3275
 30
0
 70
     0
  0
VERTEX
  8
LAYER1
 10
0.9055
 20
3.3385
 30
0
 70
     0
  0
VERTEX
  8
LAYER1
 10
0.9028
 20
3.352
 30
0
 70
     0
  0
SEQEND
  0
POLYLINE
  8
LAYER1
  6
CONTINUOUS
 62
     7
 66
     1
 70
     0
 40
0.001
 41
0.001
  0
VERTEX
  8
LAYER1
 10
0.8611
 20
3.9562
 30
0
 70
     0
  0
VERTEX
  8
LAYER1
 10
0.8826
 20
3.9518
 30
0
 70
     0
  0
VERTEX
  8
LAYER1
 10
0.9003
 20
3.9398
 30
0
 70
     0
  0
VERTEX
  8
LAYER1
 10
0.9123
 20
3.9221
 30
0
 70
     0
  0
VERTEX
  8
LAYER1
 10
0.9167
 20
3.9006
 30
0
 70
     0
  0
SEQEND
  0
LINE
  8
LAYER1
  6
CONTINUOUS
 62
     7
 10
0.9028
 20
3.3589
 30
0
 11
0.9028
 21
3.9145
 31
0
  0
POLYLINE
  8
LAYER1
  6
CONTINUOUS
 62
     7
 66
     1
 70
     0
 40
0.001
 41
0.001
  0
VERTEX
  8
LAYER1
 10
1.1389
 20
3.3312
 30
0
 70
     0
  0
VERTEX
  8
LAYER1
 10
1.1604
 20
3.3268
 30
0
 70
     0
  0
VERTEX
  8
LAYER1
 10
1.1781
 20
3.3148
 30
0
 70
     0
  0
VERTEX
  8
LAYER1
 10
1.19
 20
3.2971
 30
0
 70
     0
  0
VERTEX
  8
LAYER1
 10
1.1944
 20
3.2756
 30
0
 70
     0
  0
SEQEND
  0
ENDBLK
  8
LAYER1
  0
BLOCK
  8
LAYER1
  2
Group11
 70
     0
 10
0
 20
0
 30
0
  0
LINE
  8
LAYER1
  6
CONTINUOUS
 62
     7
 10
0.9167
 20
3.3312
 30
0
 11
1.1389
 21
3.3312
 31
0
  0
LINE
  8
LAYER1
  6
CONTINUOUS
 62
     7
 10
1.0833
 20
3.2895
 30
0
 11
1.125
 21
3.3312
 31
0
  0
LINE
  8
LAYER1
  6
CONTINUOUS
 62
     7
 10
0.9444
 20
3.2895
 30
0
 11
0.9861
 21
3.3312
 31
0
  0
LINE
  8
LAYER1
  6
CONTINUOUS
 62
     7
 10
0.8472
 20
3.3312
 30
0
 11
0.9028
 21
3.3728
 31
0
  0
LINE
  8
LAYER1
  6
CONTINUOUS
 62
     7
 10
0.8472
 20
3.4562
 30
0
 11
0.9028
 21
3.5117
 31
0
  0
LINE
  8
LAYER1
  6
CONTINUOUS
 62
     7
 10
0.8472
 20
3.5951
 30
0
 11
0.9028
 21
3.6367
 31
0
  0
LINE
  8
LAYER1
  6
CONTINUOUS
 62
     7
 10
0.8472
 20
3.7201
 30
0
 11
0.9028
 21
3.7756
 31
0
  0
LINE
  8
LAYER1
  6
CONTINUOUS
 62
     7
 10
0.8472
 20
3.8589
 30
0
 11
0.9028
 21
3.9006
 31
0
  0
LINE
  8
LAYER1
  6
CONTINUOUS
 62
     7
 10
1.125
 20
3.2895
 30
0
 11
1.1667
 21
3.3312
 31
0
  0
LINE
  8
LAYER1
  6
CONTINUOUS
 62
     7
 10
0.9861
 20
3.2895
 30
0
 11
1.0417
 21
3.3312
 31
0
  0
LINE
  8
LAYER1
  6
CONTINUOUS
 62
     7
 10
0.8611
 20
3.2895
 30
0
 11
0.9028
 21
3.3451
 31
0
  0
LINE
  8
LAYER1
  6
CONTINUOUS
 62
     7
 10
0.8472
 20
3.4145
 30
0
 11
0.9028
 21
3.4562
 31
0
  0
LINE
  8
LAYER1
  6
CONTINUOUS
 62
     7
 10
0.8472
 20
3.5534
 30
0
 11
0.9028
 21
3.5951
 31
0
  0
LINE
  8
LAYER1
  6
CONTINUOUS
 62
     7
 10
0.8472
 20
3.6784
 30
0
 11
0.9028
 21
3.7201
 31
0
  0
LINE
  8
LAYER1
  6
CONTINUOUS
 62
     7
 10
0.8472
 20
3.8173
 30
0
 11
0.9028
 21
3.8589
 31
0
  0
ENDBLK
  8
LAYER1
  0
BLOCK
  8
LAYER1
  2
Group12
 70
     0
 10
0
 20
0
 30
0
  0
INSERT
  8
LAYER1
  2
Group10
 10
0
 20
0
 30
0
  0
INSERT
  8
LAYER1
  2
Group11
 10
0
 20
0
 30
0
  0
ENDBLK
  8
LAYER1
  0
BLOCK
  8
LAYER1
  2
Group13
 70
     0
 10
0
 20
0
 30
0
  0
LINE
  8
LAYER1
  6
CONTINUOUS
 62
     7
 10
0.8472
 20
3.9423
 30
0
 11
0.8611
 21
3.9562
 31
0
  0
LINE
  8
LAYER1
  6
CONTINUOUS
 62
     7
 10
0.8472
 20
1.4284
 30
0
 11
0.8472
 21
2.0117
 31
0
  0
LINE
  8
LAYER1
  6
CONTINUOUS
 62
     7
 10
0.8472
 20
1.4284
 30
0
 11
1.1806
 21
1.4284
 31
0
  0
POLYLINE
  8
LAYER1
  6
CONTINUOUS
 62
     7
 66
     1
 70
     0
 40
0.001
 41
0.001
  0
VERTEX
  8
LAYER1
 10
0.9375
 20
1.4701
 30
0
 70
     0
  0
VERTEX
  8
LAYER1
 10
0.924
 20
1.4728
 30
0
 70
     0
  0
VERTEX
  8
LAYER1
 10
0.913
 20
1.4803
 30
0
 70
     0
  0
VERTEX
  8
LAYER1
 10
0.9055
 20
1.4913
 30
0
 70
     0
  0
VERTEX
  8
LAYER1
 10
0.9028
 20
1.5048
 30
0
 70
     0
  0
SEQEND
  0
POLYLINE
  8
LAYER1
  6
CONTINUOUS
 62
     7
 66
     1
 70
     0
 40
0.001
 41
0.001
  0
VERTEX
  8
LAYER1
 10
0.8611
 20
2.0256
 30
0
 70
     0
  0
VERTEX
  8
LAYER1
 10
0.8826
 20
2.0212
 30
0
 70
     0
  0
VERTEX
  8
LAYER1
 10
0.9003
 20
2.0093
 30
0
 70
     0
  0
VERTEX
  8
LAYER1
 10
0.9123
 20
1.9916
 30
0
 70
     0
  0
VERTEX
  8
LAYER1
 10
0.9167
 20
1.9701
 30
0
 70
     0
  0
SEQEND
  0
LINE
  8
LAYER1
  6
CONTINUOUS
 62
     7
 10
0.9028
 20
1.5117
 30
0
 11
0.9028
 21
1.9701
 31
0
  0
POLYLINE
  8
LAYER1
  6
CONTINUOUS
 62
     7
 66
     1
 70
     0
 40
0.001
 41
0.001
  0
VERTEX
  8
LAYER1
 10
1.1389
 20
1.4839
 30
0
 70
     0
  0
VERTEX
  8
LAYER1
 10
1.1604
 20
1.4795
 30
0
 70
     0
  0
VERTEX
  8
LAYER1
 10
1.1781
 20
1.4676
 30
0
 70
     0
  0
VERTEX
  8
LAYER1
 10
1.19
 20
1.4499
 30
0
 70
     0
  0
VERTEX
  8
LAYER1
 10
1.1944
 20
1.4284
 30
0
 70
     0
  0
SEQEND
  0
LINE
  8
LAYER1
  6
CONTINUOUS
 62
     7
 10
0.9306
 20
1.4839
 30
0
 11
1.125
 21
1.4839
 31
0
  0
ENDBLK
  8
LAYER1
  0
BLOCK
  8
LAYER1
  2
Group14
 70
     0
 10
0
 20
0
 30
0
  0
POLYLINE
  8
LAYER1
  6
CONTINUOUS
 62
     7
 66
     1
 70
     0
 40
0.001
 41
0.001
  0
VERTEX
  8
LAYER1
 10
1.1806
 20
1.4423
 30
0
 70
     0
  0
VERTEX
  8
LAYER1
 10
1.1806
 20
1.4284
 30
0
 70
     0
  0
VERTEX
  8
LAYER1
 10
1.1806
 20
1.4423
 30
0
 70
     0
  0
SEQEND
  0
LINE
  8
LAYER1
  6
CONTINUOUS
 62
     7
 10
1.0417
 20
1.4284
 30
0
 11
1.0972
 21
1.4839
 31
0
  0
LINE
  8
LAYER1
  6
CONTINUOUS
 62
     7
 10
0.9028
 20
1.4284
 30
0
 11
0.9583
 21
1.4839
 31
0
  0
LINE
  8
LAYER1
  6
CONTINUOUS
 62
     7
 10
0.8472
 20
1.5117
 30
0
 11
0.9028
 21
1.5673
 31
0
  0
LINE
  8
LAYER1
  6
CONTINUOUS
 62
     7
 10
0.8472
 20
1.6367
 30
0
 11
0.9028
 21
1.6923
 31
0
  0
LINE
  8
LAYER1
  6
CONTINUOUS
 62
     7
 10
0.8472
 20
1.7756
 30
0
 11
0.9028
 21
1.8312
 31
0
  0
LINE
  8
LAYER1
  6
CONTINUOUS
 62
     7
 10
0.8472
 20
1.9006
 30
0
 11
0.9028
 21
1.9562
 31
0
  0
LINE
  8
LAYER1
  6
CONTINUOUS
 62
     7
 10
1.0833
 20
1.4284
 30
0
 11
1.1389
 21
1.4839
 31
0
  0
LINE
  8
LAYER1
  6
CONTINUOUS
 62
     7
 10
0.9583
 20
1.4284
 30
0
 11
1
 21
1.4839
 31
0
  0
LINE
  8
LAYER1
  6
CONTINUOUS
 62
     7
 10
0.8472
 20
1.4701
 30
0
 11
0.9028
 21
1.5117
 31
0
  0
LINE
  8
LAYER1
  6
CONTINUOUS
 62
     7
 10
0.8472
 20
1.5951
 30
0
 11
0.9028
 21
1.6506
 31
0
  0
LINE
  8
LAYER1
  6
CONTINUOUS
 62
     7
 10
0.8472
 20
1.7339
 30
0
 11
0.9028
 21
1.7756
 31
0
  0
LINE
  8
LAYER1
  6
CONTINUOUS
 62
     7
 10
0.8472
 20
1.8589
 30
0
 11
0.9028
 21
1.9145
 31
0
  0
ENDBLK
  8
LAYER1
  0
BLOCK
  8
LAYER1
  2
Group15
 70
     0
 10
0
 20
0
 30
0
  0
INSERT
  8
LAYER1
  2
Group13
 10
0
 20
0
 30
0
  0
INSERT
  8
LAYER1
  2
Group14
 10
0
 20
0
 30
0
  0
ENDBLK
  8
LAYER1
  0
BLOCK
  8
LAYER1
  2
Group16
 70
     0
 10
0
 20
0
 30
0
  0
LINE
  8
LAYER1
  6
CONTINUOUS
 62
     7
 10
0.8472
 20
1.9978
 30
0
 11
0.875
 21
2.0117
 31
0
  0
LINE
  8
LAYER1
  6
CONTINUOUS
 62
     7
 10
2.9167
 20
9.0812
 30
0
 11
2.9167
 21
9.5812
 31
0
  0
LINE
  8
LAYER1
  6
CONTINUOUS
 62
     7
 10
2.9167
 20
9.0812
 30
0
 11
3.4167
 21
9.0812
 31
0
  0
POLYLINE
  8
LAYER1
  6
CONTINUOUS
 62
     7
 66
     1
 70
     0
 40
0.001
 41
0.001
  0
VERTEX
  8
LAYER1
 10
3.0694
 20
9.1228
 30
0
 70
     0
  0
VERTEX
  8
LAYER1
 10
3.0317
 20
9.1305
 30
0
 70
     0
  0
VERTEX
  8
LAYER1
 10
3.0008
 20
9.1514
 30
0
 70
     0
  0
VERTEX
  8
LAYER1
 10
2.9799
 20
9.1824
 30
0
 70
     0
  0
VERTEX
  8
LAYER1
 10
2.9722
 20
9.2201
 30
0
 70
     0
  0
SEQEND
  0
POLYLINE
  8
LAYER1
  6
CONTINUOUS
 62
     7
 66
     1
 70
     0
 40
0.001
 41
0.001
  0
VERTEX
  8
LAYER1
 10
2.9306
 20
9.5812
 30
0
 70
     0
  0
VERTEX
  8
LAYER1
 10
2.9521
 20
9.5768
 30
0
 70
     0
  0
VERTEX
  8
LAYER1
 10
2.9698
 20
9.5648
 30
0
 70
     0
  0
VERTEX
  8
LAYER1
 10
2.9817
 20
9.5471
 30
0
 70
     0
  0
VERTEX
  8
LAYER1
 10
2.9861
 20
9.5256
 30
0
 70
     0
  0
SEQEND
  0
LINE
  8
LAYER1
  6
CONTINUOUS
 62
     7
 10
2.9722
 20
9.2201
 30
0
 11
2.9722
 21
9.5256
 31
0
  0
POLYLINE
  8
LAYER1
  6
CONTINUOUS
 62
     7
 66
     1
 70
     0
 40
0.001
 41
0.001
  0
VERTEX
  8
LAYER1
 10
3.375
 20
9.1367
 30
0
 70
     0
  0
VERTEX
  8
LAYER1
 10
3.3965
 20
9.1323
 30
0
 70
     0
  0
VERTEX
  8
LAYER1
 10
3.4142
 20
9.1204
 30
0
 70
     0
  0
VERTEX
  8
LAYER1
 10
3.4262
 20
9.1027
 30
0
 70
     0
  0
VERTEX
  8
LAYER1
 10
3.4306
 20
9.0812
 30
0
 70
     0
  0
SEQEND
  0
ENDBLK
  8
LAYER1
  0
BLOCK
  8
LAYER1
  2
Group17
 70
     0
 10
0
 20
0
 30
0
  0
LINE
  8
LAYER1
  6
CONTINUOUS
 62
     7
 10
3.0694
 20
9.1367
 30
0
 11
3.375
 21
9.1367
 31
0
  0
LINE
  8
LAYER1
  6
CONTINUOUS
 62
     7
 10
3.4028
 20
9.0812
 30
0
 11
3.4167
 21
9.0951
 31
0
  0
LINE
  8
LAYER1
  6
CONTINUOUS
 62
     7
 10
3.2639
 20
9.0812
 30
0
 11
3.3194
 21
9.1367
 31
0
  0
LINE
  8
LAYER1
  6
CONTINUOUS
 62
     7
 10
3.1389
 20
9.0812
 30
0
 11
3.1944
 21
9.1367
 31
0
  0
LINE
  8
LAYER1
  6
CONTINUOUS
 62
     7
 10
3
 20
9.0812
 30
0
 11
3.0556
 21
9.1367
 31
0
  0
LINE
  8
LAYER1
  6
CONTINUOUS
 62
     7
 10
2.9167
 20
9.1367
 30
0
 11
2.9861
 21
9.1923
 31
0
  0
LINE
  8
LAYER1
  6
CONTINUOUS
 62
     7
 10
2.9167
 20
9.2617
 30
0
 11
2.9722
 21
9.3173
 31
0
  0
LINE
  8
LAYER1
  6
CONTINUOUS
 62
     7
 10
2.9167
 20
9.4006
 30
0
 11
2.9722
 21
9.4562
 31
0
  0
LINE
  8
LAYER1
  6
CONTINUOUS
 62
     7
 10
2.9167
 20
9.5256
 30
0
 11
2.9583
 21
9.5673
 31
0
  0
LINE
  8
LAYER1
  6
CONTINUOUS
 62
     7
 10
3.3194
 20
9.0812
 30
0
 11
3.3611
 21
9.1367
 31
0
  0
LINE
  8
LAYER1
  6
CONTINUOUS
 62
     7
 10
3.1806
 20
9.0812
 30
0
 11
3.2361
 21
9.1367
 31
0
  0
LINE
  8
LAYER1
  6
CONTINUOUS
 62
     7
 10
3.0417
 20
9.0812
 30
0
 11
3.0972
 21
9.1367
 31
0
  0
LINE
  8
LAYER1
  6
CONTINUOUS
 62
     7
 10
2.9167
 20
9.0951
 30
0
 11
3
 21
9.1645
 31
0
  0
LINE
  8
LAYER1
  6
CONTINUOUS
 62
     7
 10
2.9167
 20
9.2201
 30
0
 11
2.9722
 21
9.2756
 31
0
  0
LINE
  8
LAYER1
  6
CONTINUOUS
 62
     7
 10
2.9167
 20
9.3589
 30
0
 11
2.9722
 21
9.4006
 31
0
  0
ENDBLK
  8
LAYER1
  0
BLOCK
  8
LAYER1
  2
Group18
 70
     0
 10
0
 20
0
 30
0
  0
INSERT
  8
LAYER1
  2
Group16
 10
0
 20
0
 30
0
  0
INSERT
  8
LAYER1
  2
Group17
 10
0
 20
0
 30
0
  0
ENDBLK
  8
LAYER1
  0
BLOCK
  8
LAYER1
  2
Group19
 70
     0
 10
0
 20
0
 30
0
  0
LINE
  8
LAYER1
  6
CONTINUOUS
 62
     7
 10
2.9167
 20
9.4839
 30
0
 11
2.9722
 21
9.5395
 31
0
  0
LINE
  8
LAYER1
  6
CONTINUOUS
 62
     7
 10
3
 20
7.2617
 30
0
 11
3
 21
7.7617
 31
0
  0
LINE
  8
LAYER1
  6
CONTINUOUS
 62
     7
 10
3
 20
7.2617
 30
0
 11
3.3333
 21
7.2617
 31
0
  0
POLYLINE
  8
LAYER1
  6
CONTINUOUS
 62
     7
 66
     1
 70
     0
 40
0.001
 41
0.001
  0
VERTEX
  8
LAYER1
 10
3.0972
 20
7.3034
 30
0
 70
     0
  0
VERTEX
  8
LAYER1
 10
3.0811
 20
7.3067
 30
0
 70
     0
  0
VERTEX
  8
LAYER1
 10
3.0678
 20
7.3157
 30
0
 70
     0
  0
VERTEX
  8
LAYER1
 10
3.0588
 20
7.3289
 30
0
 70
     0
  0
VERTEX
  8
LAYER1
 10
3.0556
 20
7.3451
 30
0
 70
     0
  0
SEQEND
  0
POLYLINE
  8
LAYER1
  6
CONTINUOUS
 62
     7
 66
     1
 70
     0
 40
0.001
 41
0.001
  0
VERTEX
  8
LAYER1
 10
3.0139
 20
7.7617
 30
0
 70
     0
  0
VERTEX
  8
LAYER1
 10
3.0354
 20
7.7573
 30
0
 70
     0
  0
VERTEX
  8
LAYER1
 10
3.0531
 20
7.7454
 30
0
 70
     0
  0
VERTEX
  8
LAYER1
 10
3.065
 20
7.7277
 30
0
 70
     0
  0
VERTEX
  8
LAYER1
 10
3.0694
 20
7.7062
 30
0
 70
     0
  0
SEQEND
  0
LINE
  8
LAYER1
  6
CONTINUOUS
 62
     7
 10
3.0556
 20
7.3589
 30
0
 11
3.0556
 21
7.7201
 31
0
  0
POLYLINE
  8
LAYER1
  6
CONTINUOUS
 62
     7
 66
     1
 70
     0
 40
0.001
 41
0.001
  0
VERTEX
  8
LAYER1
 10
3.2917
 20
7.3173
 30
0
 70
     0
  0
VERTEX
  8
LAYER1
 10
3.3132
 20
7.3129
 30
0
 70
     0
  0
VERTEX
  8
LAYER1
 10
3.3309
 20
7.3009
 30
0
 70
     0
  0
VERTEX
  8
LAYER1
 10
3.3428
 20
7.2833
 30
0
 70
     0
  0
VERTEX
  8
LAYER1
 10
3.3472
 20
7.2617
 30
0
 70
     0
  0
SEQEND
  0
LINE
  8
LAYER1
  6
CONTINUOUS
 62
     7
 10
3.0972
 20
7.3173
 30
0
 11
3.2917
 21
7.3173
 31
0
  0
ENDBLK
  8
LAYER1
  0
BLOCK
  8
LAYER1
  2
Group20
 70
     0
 10
0
 20
0
 30
0
  0
LINE
  8
LAYER1
  6
CONTINUOUS
 62
     7
 10
3.3333
 20
7.2617
 30
0
 11
3.3333
 21
7.2756
 31
0
  0
LINE
  8
LAYER1
  6
CONTINUOUS
 62
     7
 10
3.2083
 20
7.2617
 30
0
 11
3.2639
 21
7.3173
 31
0
  0
LINE
  8
LAYER1
  6
CONTINUOUS
 62
     7
 10
3.0833
 20
7.2617
 30
0
 11
3.1389
 21
7.3173
 31
0
  0
LINE
  8
LAYER1
  6
CONTINUOUS
 62
     7
 10
3
 20
7.3312
 30
0
 11
3.0556
 21
7.3728
 31
0
  0
LINE
  8
LAYER1
  6
CONTINUOUS
 62
     7
 10
3
 20
7.4562
 30
0
 11
3.0556
 21
7.5117
 31
0
  0
LINE
  8
LAYER1
  6
CONTINUOUS
 62
     7
 10
3
 20
7.5951
 30
0
 11
3.0556
 21
7.6367
 31
0
  0
LINE
  8
LAYER1
  6
CONTINUOUS
 62
     7
 10
3
 20
7.7201
 30
0
 11
3.0417
 21
7.7617
 31
0
  0
LINE
  8
LAYER1
  6
CONTINUOUS
 62
     7
 10
3.2639
 20
7.2617
 30
0
 11
3.3056
 21
7.3173
 31
0
  0
LINE
  8
LAYER1
  6
CONTINUOUS
 62
     7
 10
3.125
 20
7.2617
 30
0
 11
3.1806
 21
7.3173
 31
0
  0
LINE
  8
LAYER1
  6
CONTINUOUS
 62
     7
 10
3
 20
7.2756
 30
0
 11
3.0556
 21
7.3312
 31
0
  0
LINE
  8
LAYER1
  6
CONTINUOUS
 62
     7
 10
3
 20
7.4145
 30
0
 11
3.0556
 21
7.4701
 31
0
  0
LINE
  8
LAYER1
  6
CONTINUOUS
 62
     7
 10
3
 20
7.5534
 30
0
 11
3.0556
 21
7.5951
 31
0
  0
ENDBLK
  8
LAYER1
  0
BLOCK
  8
LAYER1
  2
Group21
 70
     0
 10
0
 20
0
 30
0
  0
INSERT
  8
LAYER1
  2
Group19
 10
0
 20
0
 30
0
  0
INSERT
  8
LAYER1
  2
Group20
 10
0
 20
0
 30
0
  0
ENDBLK
  8
LAYER1
  0
BLOCK
  8
LAYER1
  2
Group22
 70
     0
 10
0
 20
0
 30
0
  0
LINE
  8
LAYER1
  6
CONTINUOUS
 62
     7
 10
3
 20
7.6784
 30
0
 11
3.0556
 21
7.7339
 31
0
  0
LINE
  8
LAYER1
  6
CONTINUOUS
 62
     7
 10
3.0278
 20
5.0395
 30
0
 11
3.0278
 21
5.5395
 31
0
  0
LINE
  8
LAYER1
  6
CONTINUOUS
 62
     7
 10
3.0278
 20
5.0395
 30
0
 11
3.3194
 21
5.0395
 31
0
  0
POLYLINE
  8
LAYER1
  6
CONTINUOUS
 62
     7
 66
     1
 70
     0
 40
0.001
 41
0.001
  0
VERTEX
  8
LAYER1
 10
3.0972
 20
5.0534
 30
0
 70
     0
  0
VERTEX
  8
LAYER1
 10
3.0811
 20
5.0567
 30
0
 70
     0
  0
VERTEX
  8
LAYER1
 10
3.0678
 20
5.0657
 30
0
 70
     0
  0
VERTEX
  8
LAYER1
 10
3.0588
 20
5.0789
 30
0
 70
     0
  0
VERTEX
  8
LAYER1
 10
3.0556
 20
5.0951
 30
0
 70
     0
  0
SEQEND
  0
POLYLINE
  8
LAYER1
  6
CONTINUOUS
 62
     7
 66
     1
 70
     0
 40
0.001
 41
0.001
  0
VERTEX
  8
LAYER1
 10
3.0347
 20
5.5395
 30
0
 70
     0
  0
VERTEX
  8
LAYER1
 10
3.0482
 20
5.5368
 30
0
 70
     0
  0
VERTEX
  8
LAYER1
 10
3.0592
 20
5.5293
 30
0
 70
     0
  0
VERTEX
  8
LAYER1
 10
3.0667
 20
5.5182
 30
0
 70
     0
  0
VERTEX
  8
LAYER1
 10
3.0694
 20
5.5048
 30
0
 70
     0
  0
SEQEND
  0
LINE
  8
LAYER1
  6
CONTINUOUS
 62
     7
 10
3.0556
 20
5.1089
 30
0
 11
3.0556
 21
5.5117
 31
0
  0
POLYLINE
  8
LAYER1
  6
CONTINUOUS
 62
     7
 66
     1
 70
     0
 40
0.001
 41
0.001
  0
VERTEX
  8
LAYER1
 10
3.2986
 20
5.0673
 30
0
 70
     0
  0
VERTEX
  8
LAYER1
 10
3.3121
 20
5.0645
 30
0
 70
     0
  0
VERTEX
  8
LAYER1
 10
3.3231
 20
5.057
 30
0
 70
     0
  0
VERTEX
  8
LAYER1
 10
3.3306
 20
5.046
 30
0
 70
     0
  0
VERTEX
  8
LAYER1
 10
3.3333
 20
5.0326
 30
0
 70
     0
  0
SEQEND
  0
ENDBLK
  8
LAYER1
  0
BLOCK
  8
LAYER1
  2
Group23
 70
     0
 10
0
 20
0
 30
0
  0
LINE
  8
LAYER1
  6
CONTINUOUS
 62
     7
 10
3.0972
 20
5.0673
 30
0
 11
3.2917
 21
5.0673
 31
0
  0
LINE
  8
LAYER1
  6
CONTINUOUS
 62
     7
 10
3.1944
 20
5.0395
 30
0
 11
3.2361
 21
5.0673
 31
0
  0
LINE
  8
LAYER1
  6
CONTINUOUS
 62
     7
 10
3.0694
 20
5.0395
 30
0
 11
3.0972
 21
5.0673
 31
0
  0
LINE
  8
LAYER1
  6
CONTINUOUS
 62
     7
 10
3.0278
 20
5.1367
 30
0
 11
3.0556
 21
5.1645
 31
0
  0
LINE
  8
LAYER1
  6
CONTINUOUS
 62
     7
 10
3.0278
 20
5.2617
 30
0
 11
3.0556
 21
5.3034
 31
0
  0
LINE
  8
LAYER1
  6
CONTINUOUS
 62
     7
 10
3.0278
 20
5.4006
 30
0
 11
3.0556
 21
5.4284
 31
0
  0
LINE
  8
LAYER1
  6
CONTINUOUS
 62
     7
 10
3.0278
 20
5.5256
 30
0
 11
3.0278
 21
5.5395
 31
0
  0
LINE
  8
LAYER1
  6
CONTINUOUS
 62
     7
 10
3.2361
 20
5.0395
 30
0
 11
3.2778
 21
5.0673
 31
0
  0
LINE
  8
LAYER1
  6
CONTINUOUS
 62
     7
 10
3.1111
 20
5.0395
 30
0
 11
3.1389
 21
5.0673
 31
0
  0
LINE
  8
LAYER1
  6
CONTINUOUS
 62
     7
 10
3.0278
 20
5.0951
 30
0
 11
3.0556
 21
5.1228
 31
0
  0
LINE
  8
LAYER1
  6
CONTINUOUS
 62
     7
 10
3.0278
 20
5.2201
 30
0
 11
3.0556
 21
5.2478
 31
0
  0
LINE
  8
LAYER1
  6
CONTINUOUS
 62
     7
 10
3.0278
 20
5.3589
 30
0
 11
3.0556
 21
5.3867
 31
0
  0
ENDBLK
  8
LAYER1
  0
BLOCK
  8
LAYER1
  2
Group24
 70
     0
 10
0
 20
0
 30
0
  0
INSERT
  8
LAYER1
  2
Group22
 10
0
 20
0
 30
0
  0
INSERT
  8
LAYER1
  2
Group23
 10
0
 20
0
 30
0
  0
ENDBLK
  8
LAYER1
  0
BLOCK
  8
LAYER1
  2
Group25
 70
     0
 10
0
 20
0
 30
0
  0
LINE
  8
LAYER1
  6
CONTINUOUS
 62
     7
 10
3.0278
 20
5.4839
 30
0
 11
3.0556
 21
5.5117
 31
0
  0
LINE
  8
LAYER1
  6
CONTINUOUS
 62
     7
 10
2.9583
 20
3.2617
 30
0
 11
2.9583
 21
3.6784
 31
0
  0
LINE
  8
LAYER1
  6
CONTINUOUS
 62
     7
 10
2.9583
 20
3.2617
 30
0
 11
3.375
 21
3.2617
 31
0
  0
POLYLINE
  8
LAYER1
  6
CONTINUOUS
 62
     7
 66
     1
 70
     0
 40
0.001
 41
0.001
  0
VERTEX
  8
LAYER1
 10
3.0903
 20
3.3173
 30
0
 70
     0
  0
VERTEX
  8
LAYER1
 10
3.0607
 20
3.3233
 30
0
 70
     0
  0
VERTEX
  8
LAYER1
 10
3.0364
 20
3.3397
 30
0
 70
     0
  0
VERTEX
  8
LAYER1
 10
3.0199
 20
3.3641
 30
0
 70
     0
  0
VERTEX
  8
LAYER1
 10
3.0139
 20
3.3937
 30
0
 70
     0
  0
SEQEND
  0
POLYLINE
  8
LAYER1
  6
CONTINUOUS
 62
     7
 66
     1
 70
     0
 40
0.001
 41
0.001
  0
VERTEX
  8
LAYER1
 10
2.9722
 20
3.6923
 30
0
 70
     0
  0
VERTEX
  8
LAYER1
 10
2.9938
 20
3.6879
 30
0
 70
     0
  0
VERTEX
  8
LAYER1
 10
3.0114
 20
3.6759
 30
0
 70
     0
  0
VERTEX
  8
LAYER1
 10
3.0234
 20
3.6583
 30
0
 70
     0
  0
VERTEX
  8
LAYER1
 10
3.0278
 20
3.6367
 30
0
 70
     0
  0
SEQEND
  0
LINE
  8
LAYER1
  6
CONTINUOUS
 62
     7
 10
3.0139
 20
3.3867
 30
0
 11
3.0139
 21
3.6367
 31
0
  0
POLYLINE
  8
LAYER1
  6
CONTINUOUS
 62
     7
 66
     1
 70
     0
 40
0.001
 41
0.001
  0
VERTEX
  8
LAYER1
 10
3.3333
 20
3.3173
 30
0
 70
     0
  0
VERTEX
  8
LAYER1
 10
3.3549
 20
3.3129
 30
0
 70
     0
  0
VERTEX
  8
LAYER1
 10
3.3725
 20
3.3009
 30
0
 70
     0
  0
VERTEX
  8
LAYER1
 10
3.3845
 20
3.2833
 30
0
 70
     0
  0
VERTEX
  8
LAYER1
 10
3.3889
 20
3.2617
 30
0
 70
     0
  0
SEQEND
  0
LINE
  8
LAYER1
  6
CONTINUOUS
 62
     7
 10
3.0833
 20
3.3173
 30
0
 11
3.3333
 21
3.3173
 31
0
  0
ENDBLK
  8
LAYER1
  0
BLOCK
  8
LAYER1
  2
Group26
 70
     0
 10
0
 20
0
 30
0
  0
LINE
  8
LAYER1
  6
CONTINUOUS
 62
     7
 10
3.375
 20
3.2617
 30
0
 11
3.375
 21
3.2756
 31
0
  0
LINE
  8
LAYER1
  6
CONTINUOUS
 62
     7
 10
3.375
 20
3.2617
 30
0
 11
3.375
 21
3.2756
 31
0
  0
LINE
  8
LAYER1
  6
CONTINUOUS
 62
     7
 10
3.25
 20
3.2617
 30
0
 11
3.3056
 21
3.3173
 31
0
  0
LINE
  8
LAYER1
  6
CONTINUOUS
 62
     7
 10
3.1111
 20
3.2617
 30
0
 11
3.1667
 21
3.3173
 31
0
  0
LINE
  8
LAYER1
  6
CONTINUOUS
 62
     7
 10
2.9861
 20
3.2617
 30
0
 11
3.0417
 21
3.3312
 31
0
  0
LINE
  8
LAYER1
  6
CONTINUOUS
 62
     7
 10
2.9583
 20
3.3867
 30
0
 11
3.0139
 21
3.4423
 31
0
  0
LINE
  8
LAYER1
  6
CONTINUOUS
 62
     7
 10
2.9583
 20
3.5117
 30
0
 11
3.0139
 21
3.5673
 31
0
  0
LINE
  8
LAYER1
  6
CONTINUOUS
 62
     7
 10
2.9583
 20
3.6506
 30
0
 11
2.9861
 21
3.6784
 31
0
  0
LINE
  8
LAYER1
  6
CONTINUOUS
 62
     7
 10
3.2917
 20
3.2617
 30
0
 11
3.3472
 21
3.3173
 31
0
  0
LINE
  8
LAYER1
  6
CONTINUOUS
 62
     7
 10
3.1528
 20
3.2617
 30
0
 11
3.2083
 21
3.3173
 31
0
  0
LINE
  8
LAYER1
  6
CONTINUOUS
 62
     7
 10
3.0278
 20
3.2617
 30
0
 11
3.0833
 21
3.3173
 31
0
  0
LINE
  8
LAYER1
  6
CONTINUOUS
 62
     7
 10
2.9583
 20
3.3451
 30
0
 11
3.0139
 21
3.3867
 31
0
  0
LINE
  8
LAYER1
  6
CONTINUOUS
 62
     7
 10
2.9583
 20
3.4701
 30
0
 11
3.0139
 21
3.5256
 31
0
  0
ENDBLK
  8
LAYER1
  0
BLOCK
  8
LAYER1
  2
Group27
 70
     0
 10
0
 20
0
 30
0
  0
INSERT
  8
LAYER1
  2
Group25
 10
0
 20
0
 30
0
  0
INSERT
  8
LAYER1
  2
Group26
 10
0
 20
0
 30
0
  0
ENDBLK
  8
LAYER1
  0
BLOCK
  8
LAYER1
  2
Group28
 70
     0
 10
0
 20
0
 30
0
  0
LINE
  8
LAYER1
  6
CONTINUOUS
 62
     7
 10
2.9583
 20
3.6089
 30
0
 11
3.0139
 21
3.6506
 31
0
  0
LINE
  8
LAYER1
  6
CONTINUOUS
 62
     7
 10
3.0278
 20
1.5395
 30
0
 11
3.0278
 21
1.9562
 31
0
  0
LINE
  8
LAYER1
  6
CONTINUOUS
 62
     7
 10
3.0278
 20
1.5395
 30
0
 11
3.3194
 21
1.5395
 31
0
  0
POLYLINE
  8
LAYER1
  6
CONTINUOUS
 62
     7
 66
     1
 70
     0
 40
0.001
 41
0.001
  0
VERTEX
  8
LAYER1
 10
3.1181
 20
1.5812
 30
0
 70
     0
  0
VERTEX
  8
LAYER1
 10
3.1046
 20
1.5839
 30
0
 70
     0
  0
VERTEX
  8
LAYER1
 10
3.0935
 20
1.5914
 30
0
 70
     0
  0
VERTEX
  8
LAYER1
 10
3.0861
 20
1.6024
 30
0
 70
     0
  0
VERTEX
  8
LAYER1
 10
3.0833
 20
1.6159
 30
0
 70
     0
  0
SEQEND
  0
POLYLINE
  8
LAYER1
  6
CONTINUOUS
 62
     7
 66
     1
 70
     0
 40
0.001
 41
0.001
  0
VERTEX
  8
LAYER1
 10
3.0278
 20
1.9562
 30
0
 70
     0
  0
VERTEX
  8
LAYER1
 10
3.0493
 20
1.9518
 30
0
 70
     0
  0
VERTEX
  8
LAYER1
 10
3.067
 20
1.9398
 30
0
 70
     0
  0
VERTEX
  8
LAYER1
 10
3.0789
 20
1.9221
 30
0
 70
     0
  0
VERTEX
  8
LAYER1
 10
3.0833
 20
1.9006
 30
0
 70
     0
  0
SEQEND
  0
LINE
  8
LAYER1
  6
CONTINUOUS
 62
     7
 10
3.0833
 20
1.6228
 30
0
 11
3.0833
 21
1.9006
 31
0
  0
POLYLINE
  8
LAYER1
  6
CONTINUOUS
 62
     7
 66
     1
 70
     0
 40
0.001
 41
0.001
  0
VERTEX
  8
LAYER1
 10
3.2778
 20
1.5951
 30
0
 70
     0
  0
VERTEX
  8
LAYER1
 10
3.2993
 20
1.5907
 30
0
 70
     0
  0
VERTEX
  8
LAYER1
 10
3.317
 20
1.5787
 30
0
 70
     0
  0
VERTEX
  8
LAYER1
 10
3.3289
 20
1.561
 30
0
 70
     0
  0
VERTEX
  8
LAYER1
 10
3.3333
 20
1.5395
 30
0
 70
     0
  0
SEQEND
  0
ENDBLK
  8
LAYER1
  0
BLOCK
  8
LAYER1
  2
Group29
 70
     0
 10
0
 20
0
 30
0
  0
LINE
  8
LAYER1
  6
CONTINUOUS
 62
     7
 10
3.1111
 20
1.5951
 30
0
 11
3.2639
 21
1.5951
 31
0
  0
LINE
  8
LAYER1
  6
CONTINUOUS
 62
     7
 10
3.3056
 20
1.5395
 30
0
 11
3.3194
 21
1.5534
 31
0
  0
LINE
  8
LAYER1
  6
CONTINUOUS
 62
     7
 10
3.1667
 20
1.5395
 30
0
 11
3.2222
 21
1.5951
 31
0
  0
LINE
  8
LAYER1
  6
CONTINUOUS
 62
     7
 10
3.0417
 20
1.5395
 30
0
 11
3.0972
 21
1.5951
 31
0
  0
LINE
  8
LAYER1
  6
CONTINUOUS
 62
     7
 10
3.0278
 20
1.6645
 30
0
 11
3.0833
 21
1.7201
 31
0
  0
LINE
  8
LAYER1
  6
CONTINUOUS
 62
     7
 10
3.0278
 20
1.7895
 30
0
 11
3.0833
 21
1.8451
 31
0
  0
LINE
  8
LAYER1
  6
CONTINUOUS
 62
     7
 10
3.0278
 20
1.9284
 30
0
 11
3.0556
 21
1.9562
 31
0
  0
LINE
  8
LAYER1
  6
CONTINUOUS
 62
     7
 10
3.2083
 20
1.5395
 30
0
 11
3.2639
 21
1.5951
 31
0
  0
LINE
  8
LAYER1
  6
CONTINUOUS
 62
     7
 10
3.0833
 20
1.5395
 30
0
 11
3.1389
 21
1.5951
 31
0
  0
LINE
  8
LAYER1
  6
CONTINUOUS
 62
     7
 10
3.0278
 20
1.6228
 30
0
 11
3.0833
 21
1.6645
 31
0
  0
LINE
  8
LAYER1
  6
CONTINUOUS
 62
     7
 10
3.0278
 20
1.7478
 30
0
 11
3.0833
 21
1.8034
 31
0
  0
ENDBLK
  8
LAYER1
  0
BLOCK
  8
LAYER1
  2
Group30
 70
     0
 10
0
 20
0
 30
0
  0
INSERT
  8
LAYER1
  2
Group28
 10
0
 20
0
 30
0
  0
INSERT
  8
LAYER1
  2
Group29
 10
0
 20
0
 30
0
  0
ENDBLK
  8
LAYER1
  0
BLOCK
  8
LAYER1
  2
Group31
 70
     0
 10
0
 20
0
 30
0
  0
LINE
  8
LAYER1
  6
CONTINUOUS
 62
     7
 10
3.0278
 20
1.8867
 30
0
 11
3.0694
 21
1.9284
 31
0
  0
LINE
  8
LAYER1
  6
CONTINUOUS
 62
     7
 10
5.0694
 20
9.0812
 30
0
 11
5.0694
 21
9.4145
 31
0
  0
LINE
  8
LAYER1
  6
CONTINUOUS
 62
     7
 10
5.0694
 20
9.0812
 30
0
 11
5.4028
 21
9.0812
 31
0
  0
POLYLINE
  8
LAYER1
  6
CONTINUOUS
 62
     7
 66
     1
 70
     0
 40
0.001
 41
0.001
  0
VERTEX
  8
LAYER1
 10
5.1806
 20
9.1228
 30
0
 70
     0
  0
VERTEX
  8
LAYER1
 10
5.159
 20
9.1272
 30
0
 70
     0
  0
VERTEX
  8
LAYER1
 10
5.1413
 20
9.1392
 30
0
 70
     0
  0
VERTEX
  8
LAYER1
 10
5.1294
 20
9.1568
 30
0
 70
     0
  0
VERTEX
  8
LAYER1
 10
5.125
 20
9.1784
 30
0
 70
     0
  0
SEQEND
  0
POLYLINE
  8
LAYER1
  6
CONTINUOUS
 62
     7
 66
     1
 70
     0
 40
0.001
 41
0.001
  0
VERTEX
  8
LAYER1
 10
5.0694
 20
9.4145
 30
0
 70
     0
  0
VERTEX
  8
LAYER1
 10
5.091
 20
9.4101
 30
0
 70
     0
  0
VERTEX
  8
LAYER1
 10
5.1086
 20
9.3981
 30
0
 70
     0
  0
VERTEX
  8
LAYER1
 10
5.1206
 20
9.3805
 30
0
 70
     0
  0
VERTEX
  8
LAYER1
 10
5.125
 20
9.3589
 30
0
 70
     0
  0
SEQEND
  0
LINE
  8
LAYER1
  6
CONTINUOUS
 62
     7
 10
5.125
 20
9.1784
 30
0
 11
5.125
 21
9.3589
 31
0
  0
POLYLINE
  8
LAYER1
  6
CONTINUOUS
 62
     7
 66
     1
 70
     0
 40
0.001
 41
0.001
  0
VERTEX
  8
LAYER1
 10
5.3472
 20
9.1367
 30
0
 70
     0
  0
VERTEX
  8
LAYER1
 10
5.3688
 20
9.1323
 30
0
 70
     0
  0
VERTEX
  8
LAYER1
 10
5.3864
 20
9.1204
 30
0
 70
     0
  0
VERTEX
  8
LAYER1
 10
5.3984
 20
9.1027
 30
0
 70
     0
  0
VERTEX
  8
LAYER1
 10
5.4028
 20
9.0812
 30
0
 70
     0
  0
SEQEND
  0
ENDBLK
  8
LAYER1
  0
BLOCK
  8
LAYER1
  2
Group32
 70
     0
 10
0
 20
0
 30
0
  0
LINE
  8
LAYER1
  6
CONTINUOUS
 62
     7
 10
5.1667
 20
9.1367
 30
0
 11
5.3472
 21
9.1367
 31
0
  0
LINE
  8
LAYER1
  6
CONTINUOUS
 62
     7
 10
5.375
 20
9.0812
 30
0
 11
5.4028
 21
9.1089
 31
0
  0
LINE
  8
LAYER1
  6
CONTINUOUS
 62
     7
 10
5.2361
 20
9.0812
 30
0
 11
5.2917
 21
9.1367
 31
0
  0
LINE
  8
LAYER1
  6
CONTINUOUS
 62
     7
 10
5.1111
 20
9.0812
 30
0
 11
5.1667
 21
9.1367
 31
0
  0
LINE
  8
LAYER1
  6
CONTINUOUS
 62
     7
 10
5.0694
 20
9.1784
 30
0
 11
5.125
 21
9.2201
 31
0
  0
LINE
  8
LAYER1
  6
CONTINUOUS
 62
     7
 10
5.0694
 20
9.3034
 30
0
 11
5.125
 21
9.3589
 31
0
  0
LINE
  8
LAYER1
  6
CONTINUOUS
 62
     7
 10
5.2917
 20
9.0812
 30
0
 11
5.3333
 21
9.1367
 31
0
  0
LINE
  8
LAYER1
  6
CONTINUOUS
 62
     7
 10
5.1528
 20
9.0812
 30
0
 11
5.2083
 21
9.1367
 31
0
  0
LINE
  8
LAYER1
  6
CONTINUOUS
 62
     7
 10
5.0694
 20
9.1367
 30
0
 11
5.125
 21
9.1784
 31
0
  0
LINE
  8
LAYER1
  6
CONTINUOUS
 62
     7
 10
5.0694
 20
9.2617
 30
0
 11
5.125
 21
9.3173
 31
0
  0
ENDBLK
  8
LAYER1
  0
BLOCK
  8
LAYER1
  2
Group33
 70
     0
 10
0
 20
0
 30
0
  0
LINE
  8
LAYER1
  6
CONTINUOUS
 62
     7
 10
5.0694
 20
9.4006
 30
0
 11
5.0833
 21
9.4145
 31
0
  0
LINE
  8
LAYER1
  6
CONTINUOUS
 62
     7
 10
5.0833
 20
7.1784
 30
0
 11
5.0833
 21
7.5117
 31
0
  0
LINE
  8
LAYER1
  6
CONTINUOUS
 62
     7
 10
5.0833
 20
7.1784
 30
0
 11
5.375
 21
7.1784
 31
0
  0
POLYLINE
  8
LAYER1
  6
CONTINUOUS
 62
     7
 66
     1
 70
     0
 40
0.001
 41
0.001
  0
VERTEX
  8
LAYER1
 10
5.1806
 20
7.2062
 30
0
 70
     0
  0
VERTEX
  8
LAYER1
 10
5.159
 20
7.2106
 30
0
 70
     0
  0
VERTEX
  8
LAYER1
 10
5.1413
 20
7.2225
 30
0
 70
     0
  0
VERTEX
  8
LAYER1
 10
5.1294
 20
7.2402
 30
0
 70
     0
  0
VERTEX
  8
LAYER1
 10
5.125
 20
7.2617
 30
0
 70
     0
  0
SEQEND
  0
POLYLINE
  8
LAYER1
  6
CONTINUOUS
 62
     7
 66
     1
 70
     0
 40
0.001
 41
0.001
  0
VERTEX
  8
LAYER1
 10
5.0903
 20
7.5117
 30
0
 70
     0
  0
VERTEX
  8
LAYER1
 10
5.1037
 20
7.509
 30
0
 70
     0
  0
VERTEX
  8
LAYER1
 10
5.1148
 20
7.5015
 30
0
 70
     0
  0
VERTEX
  8
LAYER1
 10
5.1222
 20
7.4905
 30
0
 70
     0
  0
VERTEX
  8
LAYER1
 10
5.125
 20
7.477
 30
0
 70
     0
  0
SEQEND
  0
LINE
  8
LAYER1
  6
CONTINUOUS
 62
     7
 10
5.125
 20
7.2617
 30
0
 11
5.125
 21
7.4839
 31
0
  0
POLYLINE
  8
LAYER1
  6
CONTINUOUS
 62
     7
 66
     1
 70
     0
 40
0.001
 41
0.001
  0
VERTEX
  8
LAYER1
 10
5.3542
 20
7.2201
 30
0
 70
     0
  0
VERTEX
  8
LAYER1
 10
5.3676
 20
7.2173
 30
0
 70
     0
  0
VERTEX
  8
LAYER1
 10
5.3787
 20
7.2098
 30
0
 70
     0
  0
VERTEX
  8
LAYER1
 10
5.3861
 20
7.1988
 30
0
 70
     0
  0
VERTEX
  8
LAYER1
 10
5.3889
 20
7.1853
 30
0
 70
     0
  0
SEQEND
  0
LINE
  8
LAYER1
  6
CONTINUOUS
 62
     7
 10
5.1667
 20
7.2201
 30
0
 11
5.3472
 21
7.2201
 31
0
  0
ENDBLK
  8
LAYER1
  0
BLOCK
  8
LAYER1
  2
Group34
 70
     0
 10
0
 20
0
 30
0
  0
LINE
  8
LAYER1
  6
CONTINUOUS
 62
     7
 10
5.375
 20
7.1923
 30
0
 11
5.375
 21
7.1784
 31
0
  0
LINE
  8
LAYER1
  6
CONTINUOUS
 62
     7
 10
5.2917
 20
7.1784
 30
0
 11
5.3333
 21
7.2201
 31
0
  0
LINE
  8
LAYER1
  6
CONTINUOUS
 62
     7
 10
5.1667
 20
7.1784
 30
0
 11
5.1944
 21
7.2201
 31
0
  0
LINE
  8
LAYER1
  6
CONTINUOUS
 62
     7
 10
5.0833
 20
7.2478
 30
0
 11
5.125
 21
7.2756
 31
0
  0
LINE
  8
LAYER1
  6
CONTINUOUS
 62
     7
 10
5.0833
 20
7.3728
 30
0
 11
5.125
 21
7.4006
 31
0
  0
LINE
  8
LAYER1
  6
CONTINUOUS
 62
     7
 10
5.0833
 20
7.5117
 30
0
 11
5.0972
 21
7.5117
 31
0
  0
LINE
  8
LAYER1
  6
CONTINUOUS
 62
     7
 10
5.3472
 20
7.1784
 30
0
 11
5.3611
 21
7.2062
 31
0
  0
LINE
  8
LAYER1
  6
CONTINUOUS
 62
     7
 10
5.2083
 20
7.1784
 30
0
 11
5.2361
 21
7.2201
 31
0
  0
LINE
  8
LAYER1
  6
CONTINUOUS
 62
     7
 10
5.0833
 20
7.1923
 30
0
 11
5.125
 21
7.2339
 31
0
  0
LINE
  8
LAYER1
  6
CONTINUOUS
 62
     7
 10
5.0833
 20
7.3312
 30
0
 11
5.125
 21
7.3589
 31
0
  0
ENDBLK
  8
LAYER1
  0
BLOCK
  8
LAYER1
  2
Group35
 70
     0
 10
0
 20
0
 30
0
  0
INSERT
  8
LAYER1
  2
Group33
 10
0
 20
0
 30
0
  0
INSERT
  8
LAYER1
  2
Group34
 10
0
 20
0
 30
0
  0
ENDBLK
  8
LAYER1
  0
BLOCK
  8
LAYER1
  2
Group36
 70
     0
 10
0
 20
0
 30
0
  0
LINE
  8
LAYER1
  6
CONTINUOUS
 62
     7
 10
5.0833
 20
7.4701
 30
0
 11
5.125
 21
7.4978
 31
0
  0
LINE
  8
LAYER1
  6
CONTINUOUS
 62
     7
 10
5.1111
 20
4.9978
 30
0
 11
5.1111
 21
5.3728
 31
0
  0
LINE
  8
LAYER1
  6
CONTINUOUS
 62
     7
 10
5.1111
 20
4.9978
 30
0
 11
5.3611
 21
4.9978
 31
0
  0
POLYLINE
  8
LAYER1
  6
CONTINUOUS
 62
     7
 66
     1
 70
     0
 40
0.001
 41
0.001
  0
VERTEX
  8
LAYER1
 10
5.1806
 20
5.0117
 30
0
 70
     0
  0
VERTEX
  8
LAYER1
 10
5.1644
 20
5.015
 30
0
 70
     0
  0
VERTEX
  8
LAYER1
 10
5.1511
 20
5.024
 30
0
 70
     0
  0
VERTEX
  8
LAYER1
 10
5.1422
 20
5.0372
 30
0
 70
     0
  0
VERTEX
  8
LAYER1
 10
5.1389
 20
5.0534
 30
0
 70
     0
  0
SEQEND
  0
POLYLINE
  8
LAYER1
  6
CONTINUOUS
 62
     7
 66
     1
 70
     0
 40
0.001
 41
0.001
  0
VERTEX
  8
LAYER1
 10
5.1181
 20
5.3728
 30
0
 70
     0
  0
VERTEX
  8
LAYER1
 10
5.1315
 20
5.3701
 30
0
 70
     0
  0
VERTEX
  8
LAYER1
 10
5.1426
 20
5.3626
 30
0
 70
     0
  0
VERTEX
  8
LAYER1
 10
5.15
 20
5.3516
 30
0
 70
     0
  0
VERTEX
  8
LAYER1
 10
5.1528
 20
5.3381
 30
0
 70
     0
  0
SEQEND
  0
LINE
  8
LAYER1
  6
CONTINUOUS
 62
     7
 10
5.1389
 20
5.0673
 30
0
 11
5.1389
 21
5.3451
 31
0
  0
POLYLINE
  8
LAYER1
  6
CONTINUOUS
 62
     7
 66
     1
 70
     0
 40
0.001
 41
0.001
  0
VERTEX
  8
LAYER1
 10
5.3264
 20
5.0256
 30
0
 70
     0
  0
VERTEX
  8
LAYER1
 10
5.3398
 20
5.0229
 30
0
 70
     0
  0
VERTEX
  8
LAYER1
 10
5.3509
 20
5.0154
 30
0
 70
     0
  0
VERTEX
  8
LAYER1
 10
5.3584
 20
5.0043
 30
0
 70
     0
  0
VERTEX
  8
LAYER1
 10
5.3611
 20
4.9909
 30
0
 70
     0
  0
SEQEND
  0
ENDBLK
  8
LAYER1
  0
BLOCK
  8
LAYER1
  2
Group37
 70
     0
 10
0
 20
0
 30
0
  0
LINE
  8
LAYER1
  6
CONTINUOUS
 62
     7
 10
5.1806
 20
5.0256
 30
0
 11
5.3333
 21
5.0256
 31
0
  0
LINE
  8
LAYER1
  6
CONTINUOUS
 62
     7
 10
5.3472
 20
4.9978
 30
0
 11
5.3611
 21
5.0117
 31
0
  0
LINE
  8
LAYER1
  6
CONTINUOUS
 62
     7
 10
5.2083
 20
4.9978
 30
0
 11
5.2361
 21
5.0256
 31
0
  0
LINE
  8
LAYER1
  6
CONTINUOUS
 62
     7
 10
5.1111
 20
5.0256
 30
0
 11
5.1389
 21
5.0673
 31
0
  0
LINE
  8
LAYER1
  6
CONTINUOUS
 62
     7
 10
5.1111
 20
5.1645
 30
0
 11
5.1389
 21
5.1923
 31
0
  0
LINE
  8
LAYER1
  6
CONTINUOUS
 62
     7
 10
5.1111
 20
5.2895
 30
0
 11
5.1389
 21
5.3312
 31
0
  0
LINE
  8
LAYER1
  6
CONTINUOUS
 62
     7
 10
5.25
 20
4.9978
 30
0
 11
5.2917
 21
5.0256
 31
0
  0
LINE
  8
LAYER1
  6
CONTINUOUS
 62
     7
 10
5.125
 20
4.9978
 30
0
 11
5.1528
 21
5.0395
 31
0
  0
LINE
  8
LAYER1
  6
CONTINUOUS
 62
     7
 10
5.1111
 20
5.1228
 30
0
 11
5.1389
 21
5.1506
 31
0
  0
ENDBLK
  8
LAYER1
  0
BLOCK
  8
LAYER1
  2
Group38
 70
     0
 10
0
 20
0
 30
0
  0
INSERT
  8
LAYER1
  2
Group36
 10
0
 20
0
 30
0
  0
INSERT
  8
LAYER1
  2
Group37
 10
0
 20
0
 30
0
  0
ENDBLK
  8
LAYER1
  0
BLOCK
  8
LAYER1
  2
Group39
 70
     0
 10
0
 20
0
 30
0
  0
LINE
  8
LAYER1
  6
CONTINUOUS
 62
     7
 10
5.1111
 20
5.2478
 30
0
 11
5.1389
 21
5.2756
 31
0
  0
LINE
  8
LAYER1
  6
CONTINUOUS
 62
     7
 10
5.0833
 20
3.2895
 30
0
 11
5.0833
 21
3.5812
 31
0
  0
LINE
  8
LAYER1
  6
CONTINUOUS
 62
     7
 10
5.0833
 20
3.2895
 30
0
 11
5.375
 21
3.2895
 31
0
  0
POLYLINE
  8
LAYER1
  6
CONTINUOUS
 62
     7
 66
     1
 70
     0
 40
0.001
 41
0.001
  0
VERTEX
  8
LAYER1
 10
5.1875
 20
3.3034
 30
0
 70
     0
  0
VERTEX
  8
LAYER1
 10
5.1633
 20
3.3083
 30
0
 70
     0
  0
VERTEX
  8
LAYER1
 10
5.1434
 20
3.3218
 30
0
 70
     0
  0
VERTEX
  8
LAYER1
 10
5.1299
 20
3.3417
 30
0
 70
     0
  0
VERTEX
  8
LAYER1
 10
5.125
 20
3.3659
 30
0
 70
     0
  0
SEQEND
  0
POLYLINE
  8
LAYER1
  6
CONTINUOUS
 62
     7
 66
     1
 70
     0
 40
0.001
 41
0.001
  0
VERTEX
  8
LAYER1
 10
5.0903
 20
3.5812
 30
0
 70
     0
  0
VERTEX
  8
LAYER1
 10
5.1037
 20
3.5784
 30
0
 70
     0
  0
VERTEX
  8
LAYER1
 10
5.1148
 20
3.5709
 30
0
 70
     0
  0
VERTEX
  8
LAYER1
 10
5.1222
 20
3.5599
 30
0
 70
     0
  0
VERTEX
  8
LAYER1
 10
5.125
 20
3.5464
 30
0
 70
     0
  0
SEQEND
  0
LINE
  8
LAYER1
  6
CONTINUOUS
 62
     7
 10
5.125
 20
3.3728
 30
0
 11
5.125
 21
3.5534
 31
0
  0
POLYLINE
  8
LAYER1
  6
CONTINUOUS
 62
     7
 66
     1
 70
     0
 40
0.001
 41
0.001
  0
VERTEX
  8
LAYER1
 10
5.3542
 20
3.3173
 30
0
 70
     0
  0
VERTEX
  8
LAYER1
 10
5.3676
 20
3.3145
 30
0
 70
     0
  0
VERTEX
  8
LAYER1
 10
5.3787
 20
3.307
 30
0
 70
     0
  0
VERTEX
  8
LAYER1
 10
5.3861
 20
3.296
 30
0
 70
     0
  0
VERTEX
  8
LAYER1
 10
5.3889
 20
3.2826
 30
0
 70
     0
  0
SEQEND
  0
ENDBLK
  8
LAYER1
  0
BLOCK
  8
LAYER1
  2
Group40
 70
     0
 10
0
 20
0
 30
0
  0
LINE
  8
LAYER1
  6
CONTINUOUS
 62
     7
 10
5.1667
 20
3.3173
 30
0
 11
5.3472
 21
3.3173
 31
0
  0
LINE
  8
LAYER1
  6
CONTINUOUS
 62
     7
 10
5.2639
 20
3.2895
 30
0
 11
5.2917
 21
3.3173
 31
0
  0
LINE
  8
LAYER1
  6
CONTINUOUS
 62
     7
 10
5.125
 20
3.2895
 30
0
 11
5.1528
 21
3.3173
 31
0
  0
LINE
  8
LAYER1
  6
CONTINUOUS
 62
     7
 10
5.0833
 20
3.3867
 30
0
 11
5.125
 21
3.4145
 31
0
  0
LINE
  8
LAYER1
  6
CONTINUOUS
 62
     7
 10
5.0833
 20
3.5117
 30
0
 11
5.125
 21
3.5534
 31
0
  0
LINE
  8
LAYER1
  6
CONTINUOUS
 62
     7
 10
5.3056
 20
3.2895
 30
0
 11
5.3333
 21
3.3173
 31
0
  0
LINE
  8
LAYER1
  6
CONTINUOUS
 62
     7
 10
5.1667
 20
3.2895
 30
0
 11
5.2083
 21
3.3173
 31
0
  0
LINE
  8
LAYER1
  6
CONTINUOUS
 62
     7
 10
5.0833
 20
3.3451
 30
0
 11
5.125
 21
3.3728
 31
0
  0
ENDBLK
  8
LAYER1
  0
BLOCK
  8
LAYER1
  2
Group41
 70
     0
 10
0
 20
0
 30
0
  0
INSERT
  8
LAYER1
  2
Group39
 10
0
 20
0
 30
0
  0
INSERT
  8
LAYER1
  2
Group40
 10
0
 20
0
 30
0
  0
ENDBLK
  8
LAYER1
  0
BLOCK
  8
LAYER1
  2
Group42
 70
     0
 10
0
 20
0
 30
0
  0
LINE
  8
LAYER1
  6
CONTINUOUS
 62
     7
 10
5.0833
 20
3.4701
 30
0
 11
5.125
 21
3.4978
 31
0
  0
LINE
  8
LAYER1
  6
CONTINUOUS
 62
     7
 10
5.1111
 20
1.5395
 30
0
 11
5.1111
 21
1.8312
 31
0
  0
LINE
  8
LAYER1
  6
CONTINUOUS
 62
     7
 10
5.1111
 20
1.5395
 30
0
 11
5.3611
 21
1.5395
 31
0
  0
POLYLINE
  8
LAYER1
  6
CONTINUOUS
 62
     7
 66
     1
 70
     0
 40
0.001
 41
0.001
  0
VERTEX
  8
LAYER1
 10
5.1181
 20
1.8312
 30
0
 70
     0
  0
VERTEX
  8
LAYER1
 10
5.1315
 20
1.8284
 30
0
 70
     0
  0
VERTEX
  8
LAYER1
 10
5.1426
 20
1.8209
 30
0
 70
     0
  0
VERTEX
  8
LAYER1
 10
5.15
 20
1.8099
 30
0
 70
     0
  0
VERTEX
  8
LAYER1
 10
5.1528
 20
1.7964
 30
0
 70
     0
  0
SEQEND
  0
POLYLINE
  8
LAYER1
  6
CONTINUOUS
 62
     7
 66
     1
 70
     0
 40
0.001
 41
0.001
  0
VERTEX
  8
LAYER1
 10
5.3264
 20
1.5673
 30
0
 70
     0
  0
VERTEX
  8
LAYER1
 10
5.3398
 20
1.5645
 30
0
 70
     0
  0
VERTEX
  8
LAYER1
 10
5.3509
 20
1.557
 30
0
 70
     0
  0
VERTEX
  8
LAYER1
 10
5.3584
 20
1.546
 30
0
 70
     0
  0
VERTEX
  8
LAYER1
 10
5.3611
 20
1.5326
 30
0
 70
     0
  0
SEQEND
  0
POLYLINE
  8
LAYER1
  6
CONTINUOUS
 62
     7
 66
     1
 70
     0
 40
0.001
 41
0.001
  0
VERTEX
  8
LAYER1
 10
5.1806
 20
1.5673
 30
0
 70
     0
  0
VERTEX
  8
LAYER1
 10
5.1644
 20
1.5706
 30
0
 70
     0
  0
VERTEX
  8
LAYER1
 10
5.1511
 20
1.5795
 30
0
 70
     0
  0
VERTEX
  8
LAYER1
 10
5.1422
 20
1.5928
 30
0
 70
     0
  0
VERTEX
  8
LAYER1
 10
5.1389
 20
1.6089
 30
0
 70
     0
  0
SEQEND
  0
LINE
  8
LAYER1
  6
CONTINUOUS
 62
     7
 10
5.1389
 20
1.6089
 30
0
 11
5.1389
 21
1.8034
 31
0
  0
ENDBLK
  8
LAYER1
  0
BLOCK
  8
LAYER1
  2
Group43
 70
     0
 10
0
 20
0
 30
0
  0
LINE
  8
LAYER1
  6
CONTINUOUS
 62
     7
 10
5.1806
 20
1.5673
 30
0
 11
5.3333
 21
1.5673
 31
0
  0
LINE
  8
LAYER1
  6
CONTINUOUS
 62
     7
 10
5.2222
 20
1.5395
 30
0
 11
5.25
 21
1.5673
 31
0
  0
LINE
  8
LAYER1
  6
CONTINUOUS
 62
     7
 10
5.1111
 20
1.5534
 30
0
 11
5.1389
 21
1.5951
 31
0
  0
LINE
  8
LAYER1
  6
CONTINUOUS
 62
     7
 10
5.1111
 20
1.6923
 30
0
 11
5.1389
 21
1.7201
 31
0
  0
LINE
  8
LAYER1
  6
CONTINUOUS
 62
     7
 10
5.1111
 20
1.8173
 30
0
 11
5.1111
 21
1.8312
 31
0
  0
LINE
  8
LAYER1
  6
CONTINUOUS
 62
     7
 10
5.2639
 20
1.5395
 30
0
 11
5.3056
 21
1.5673
 31
0
  0
LINE
  8
LAYER1
  6
CONTINUOUS
 62
     7
 10
5.1389
 20
1.5395
 30
0
 11
5.1667
 21
1.5673
 31
0
  0
LINE
  8
LAYER1
  6
CONTINUOUS
 62
     7
 10
5.1111
 20
1.6506
 30
0
 11
5.1389
 21
1.6784
 31
0
  0
ENDBLK
  8
LAYER1
  0
BLOCK
  8
LAYER1
  2
Group44
 70
     0
 10
0
 20
0
 30
0
  0
INSERT
  8
LAYER1
  2
Group42
 10
0
 20
0
 30
0
  0
INSERT
  8
LAYER1
  2
Group43
 10
0
 20
0
 30
0
  0
ENDBLK
  8
LAYER1
  0
BLOCK
  8
LAYER1
  2
Group45
 70
     0
 10
0
 20
0
 30
0
  0
LINE
  8
LAYER1
  6
CONTINUOUS
 62
     7
 10
5.1111
 20
1.7756
 30
0
 11
5.1389
 21
1.8034
 31
0
  0
LINE
  8
LAYER1
  6
CONTINUOUS
 62
     7
 10
9.5
 20
9.0812
 30
0
 11
9.5
 21
9.3728
 31
0
  0
LINE
  8
LAYER1
  6
CONTINUOUS
 62
     7
 10
9.5
 20
9.0812
 30
0
 11
9.7083
 21
9.0812
 31
0
  0
POLYLINE
  8
LAYER1
  6
CONTINUOUS
 62
     7
 66
     1
 70
     0
 40
0.001
 41
0.001
  0
VERTEX
  8
LAYER1
 10
9.5069
 20
9.3728
 30
0
 70
     0
  0
VERTEX
  8
LAYER1
 10
9.5204
 20
9.3701
 30
0
 70
     0
  0
VERTEX
  8
LAYER1
 10
9.5314
 20
9.3626
 30
0
 70
     0
  0
VERTEX
  8
LAYER1
 10
9.5389
 20
9.3516
 30
0
 70
     0
  0
VERTEX
  8
LAYER1
 10
9.5417
 20
9.3381
 30
0
 70
     0
  0
SEQEND
  0
POLYLINE
  8
LAYER1
  6
CONTINUOUS
 62
     7
 66
     1
 70
     0
 40
0.001
 41
0.001
  0
VERTEX
  8
LAYER1
 10
9.6736
 20
9.1089
 30
0
 70
     0
  0
VERTEX
  8
LAYER1
 10
9.6871
 20
9.1062
 30
0
 70
     0
  0
VERTEX
  8
LAYER1
 10
9.6981
 20
9.0987
 30
0
 70
     0
  0
VERTEX
  8
LAYER1
 10
9.7056
 20
9.0877
 30
0
 70
     0
  0
VERTEX
  8
LAYER1
 10
9.7083
 20
9.0742
 30
0
 70
     0
  0
SEQEND
  0
POLYLINE
  8
LAYER1
  6
CONTINUOUS
 62
     7
 66
     1
 70
     0
 40
0.001
 41
0.001
  0
VERTEX
  8
LAYER1
 10
9.5556
 20
9.1089
 30
0
 70
     0
  0
VERTEX
  8
LAYER1
 10
9.5359
 20
9.1171
 30
0
 70
     0
  0
VERTEX
  8
LAYER1
 10
9.5278
 20
9.1367
 30
0
 70
     0
  0
SEQEND
  0
LINE
  8
LAYER1
  6
CONTINUOUS
 62
     7
 10
9.5556
 20
9.1089
 30
0
 11
9.6806
 21
9.1089
 31
0
  0
ENDBLK
  8
LAYER1
  0
BLOCK
  8
LAYER1
  2
Group46
 70
     0
 10
0
 20
0
 30
0
  0
LINE
  8
LAYER1
  6
CONTINUOUS
 62
     7
 10
9.5278
 20
9.1367
 30
0
 11
9.5278
 21
9.3451
 31
0
  0
LINE
  8
LAYER1
  6
CONTINUOUS
 62
     7
 10
9.6944
 20
9.0812
 30
0
 11
9.7083
 21
9.0951
 31
0
  0
LINE
  8
LAYER1
  6
CONTINUOUS
 62
     7
 10
9.5694
 20
9.0812
 30
0
 11
9.5972
 21
9.1089
 31
0
  0
LINE
  8
LAYER1
  6
CONTINUOUS
 62
     7
 10
9.5
 20
9.1506
 30
0
 11
9.5278
 21
9.1784
 31
0
  0
LINE
  8
LAYER1
  6
CONTINUOUS
 62
     7
 10
9.5
 20
9.2756
 30
0
 11
9.5278
 21
9.3034
 31
0
  0
LINE
  8
LAYER1
  6
CONTINUOUS
 62
     7
 10
9.6111
 20
9.0812
 30
0
 11
9.6389
 21
9.1089
 31
0
  0
LINE
  8
LAYER1
  6
CONTINUOUS
 62
     7
 10
9.5
 20
9.0951
 30
0
 11
9.5278
 21
9.1367
 31
0
  0
ENDBLK
  8
LAYER1
  0
BLOCK
  8
LAYER1
  2
Group47
 70
     0
 10
0
 20
0
 30
0
  0
INSERT
  8
LAYER1
  2
Group45
 10
0
 20
0
 30
0
  0
INSERT
  8
LAYER1
  2
Group46
 10
0
 20
0
 30
0
  0
ENDBLK
  8
LAYER1
  0
BLOCK
  8
LAYER1
  2
Group48
 70
     0
 10
0
 20
0
 30
0
  0
LINE
  8
LAYER1
  6
CONTINUOUS
 62
     7
 10
9.5
 20
9.2339
 30
0
 11
9.5278
 21
9.2617
 31
0
  0
LINE
  8
LAYER1
  6
CONTINUOUS
 62
     7
 10
9.4722
 20
7.1784
 30
0
 11
9.4722
 21
7.4284
 31
0
  0
LINE
  8
LAYER1
  6
CONTINUOUS
 62
     7
 10
9.4722
 20
7.1784
 30
0
 11
9.7222
 21
7.1784
 31
0
  0
POLYLINE
  8
LAYER1
  6
CONTINUOUS
 62
     7
 66
     1
 70
     0
 40
0.001
 41
0.001
  0
VERTEX
  8
LAYER1
 10
9.5625
 20
7.1923
 30
0
 70
     0
  0
VERTEX
  8
LAYER1
 10
9.5437
 20
7.1961
 30
0
 70
     0
  0
VERTEX
  8
LAYER1
 10
9.5282
 20
7.2066
 30
0
 70
     0
  0
VERTEX
  8
LAYER1
 10
9.5177
 20
7.222
 30
0
 70
     0
  0
VERTEX
  8
LAYER1
 10
9.5139
 20
7.2409
 30
0
 70
     0
  0
SEQEND
  0
POLYLINE
  8
LAYER1
  6
CONTINUOUS
 62
     7
 66
     1
 70
     0
 40
0.001
 41
0.001
  0
VERTEX
  8
LAYER1
 10
9.4792
 20
7.4284
 30
0
 70
     0
  0
VERTEX
  8
LAYER1
 10
9.4926
 20
7.4256
 30
0
 70
     0
  0
VERTEX
  8
LAYER1
 10
9.5037
 20
7.4182
 30
0
 70
     0
  0
VERTEX
  8
LAYER1
 10
9.5111
 20
7.4071
 30
0
 70
     0
  0
VERTEX
  8
LAYER1
 10
9.5139
 20
7.3937
 30
0
 70
     0
  0
SEQEND
  0
LINE
  8
LAYER1
  6
CONTINUOUS
 62
     7
 10
9.5139
 20
7.2478
 30
0
 11
9.5139
 21
7.4006
 31
0
  0
POLYLINE
  8
LAYER1
  6
CONTINUOUS
 62
     7
 66
     1
 70
     0
 40
0.001
 41
0.001
  0
VERTEX
  8
LAYER1
 10
9.7014
 20
7.2062
 30
0
 70
     0
  0
VERTEX
  8
LAYER1
 10
9.7148
 20
7.2034
 30
0
 70
     0
  0
VERTEX
  8
LAYER1
 10
9.7259
 20
7.1959
 30
0
 70
     0
  0
VERTEX
  8
LAYER1
 10
9.7334
 20
7.1849
 30
0
 70
     0
  0
VERTEX
  8
LAYER1
 10
9.7361
 20
7.1714
 30
0
 70
     0
  0
SEQEND
  0
ENDBLK
  8
LAYER1
  0
BLOCK
  8
LAYER1
  2
Group49
 70
     0
 10
0
 20
0
 30
0
  0
LINE
  8
LAYER1
  6
CONTINUOUS
 62
     7
 10
9.5556
 20
7.2062
 30
0
 11
9.6944
 21
7.2062
 31
0
  0
LINE
  8
LAYER1
  6
CONTINUOUS
 62
     7
 10
9.7222
 20
7.1784
 30
0
 11
9.7222
 21
7.1923
 31
0
  0
LINE
  8
LAYER1
  6
CONTINUOUS
 62
     7
 10
9.5833
 20
7.1784
 30
0
 11
9.6111
 21
7.2062
 31
0
  0
LINE
  8
LAYER1
  6
CONTINUOUS
 62
     7
 10
9.4722
 20
7.2062
 30
0
 11
9.5139
 21
7.2339
 31
0
  0
LINE
  8
LAYER1
  6
CONTINUOUS
 62
     7
 10
9.4722
 20
7.3312
 30
0
 11
9.5139
 21
7.3728
 31
0
  0
LINE
  8
LAYER1
  6
CONTINUOUS
 62
     7
 10
9.625
 20
7.1784
 30
0
 11
9.6667
 21
7.2062
 31
0
  0
LINE
  8
LAYER1
  6
CONTINUOUS
 62
     7
 10
9.5
 20
7.1784
 30
0
 11
9.5278
 21
7.2201
 31
0
  0
LINE
  8
LAYER1
  6
CONTINUOUS
 62
     7
 10
9.4722
 20
7.2895
 30
0
 11
9.5139
 21
7.3173
 31
0
  0
ENDBLK
  8
LAYER1
  0
BLOCK
  8
LAYER1
  2
Group50
 70
     0
 10
0
 20
0
 30
0
  0
INSERT
  8
LAYER1
  2
Group48
 10
0
 20
0
 30
0
  0
INSERT
  8
LAYER1
  2
Group49
 10
0
 20
0
 30
0
  0
ENDBLK
  8
LAYER1
  0
BLOCK
  8
LAYER1
  2
Group51
 70
     0
 10
0
 20
0
 30
0
  0
LINE
  8
LAYER1
  6
CONTINUOUS
 62
     7
 10
9.4722
 20
7.4284
 30
0
 11
9.4861
 21
7.4284
 31
0
  0
LINE
  8
LAYER1
  6
CONTINUOUS
 62
     7
 10
9.5
 20
5.0812
 30
0
 11
9.5
 21
5.3312
 31
0
  0
LINE
  8
LAYER1
  6
CONTINUOUS
 62
     7
 10
9.5
 20
5.0812
 30
0
 11
9.7083
 21
5.0812
 31
0
  0
POLYLINE
  8
LAYER1
  6
CONTINUOUS
 62
     7
 66
     1
 70
     0
 40
0.001
 41
0.001
  0
VERTEX
  8
LAYER1
 10
9.5069
 20
5.3312
 30
0
 70
     0
  0
VERTEX
  8
LAYER1
 10
9.5204
 20
5.3284
 30
0
 70
     0
  0
VERTEX
  8
LAYER1
 10
9.5314
 20
5.3209
 30
0
 70
     0
  0
VERTEX
  8
LAYER1
 10
9.5389
 20
5.3099
 30
0
 70
     0
  0
VERTEX
  8
LAYER1
 10
9.5417
 20
5.2964
 30
0
 70
     0
  0
SEQEND
  0
POLYLINE
  8
LAYER1
  6
CONTINUOUS
 62
     7
 66
     1
 70
     0
 40
0.001
 41
0.001
  0
VERTEX
  8
LAYER1
 10
9.6736
 20
5.1089
 30
0
 70
     0
  0
VERTEX
  8
LAYER1
 10
9.6871
 20
5.1062
 30
0
 70
     0
  0
VERTEX
  8
LAYER1
 10
9.6981
 20
5.0987
 30
0
 70
     0
  0
VERTEX
  8
LAYER1
 10
9.7056
 20
5.0877
 30
0
 70
     0
  0
VERTEX
  8
LAYER1
 10
9.7083
 20
5.0742
 30
0
 70
     0
  0
SEQEND
  0
POLYLINE
  8
LAYER1
  6
CONTINUOUS
 62
     7
 66
     1
 70
     0
 40
0.001
 41
0.001
  0
VERTEX
  8
LAYER1
 10
9.5625
 20
5.0951
 30
0
 70
     0
  0
VERTEX
  8
LAYER1
 10
9.549
 20
5.0978
 30
0
 70
     0
  0
VERTEX
  8
LAYER1
 10
9.538
 20
5.1053
 30
0
 70
     0
  0
VERTEX
  8
LAYER1
 10
9.5305
 20
5.1163
 30
0
 70
     0
  0
VERTEX
  8
LAYER1
 10
9.5278
 20
5.1298
 30
0
 70
     0
  0
SEQEND
  0
LINE
  8
LAYER1
  6
CONTINUOUS
 62
     7
 10
9.5556
 20
5.1089
 30
0
 11
9.6806
 21
5.1089
 31
0
  0
ENDBLK
  8
LAYER1
  0
BLOCK
  8
LAYER1
  2
Group52
 70
     0
 10
0
 20
0
 30
0
  0
LINE
  8
LAYER1
  6
CONTINUOUS
 62
     7
 10
9.5278
 20
5.1367
 30
0
 11
9.5278
 21
5.2895
 31
0
  0
LINE
  8
LAYER1
  6
CONTINUOUS
 62
     7
 10
9.5694
 20
5.0812
 30
0
 11
9.5972
 21
5.1089
 31
0
  0
LINE
  8
LAYER1
  6
CONTINUOUS
 62
     7
 10
9.5
 20
5.1367
 30
0
 11
9.5278
 21
5.1645
 31
0
  0
LINE
  8
LAYER1
  6
CONTINUOUS
 62
     7
 10
9.5
 20
5.2617
 30
0
 11
9.5278
 21
5.3034
 31
0
  0
LINE
  8
LAYER1
  6
CONTINUOUS
 62
     7
 10
9.6111
 20
5.0812
 30
0
 11
9.6528
 21
5.1089
 31
0
  0
LINE
  8
LAYER1
  6
CONTINUOUS
 62
     7
 10
9.5
 20
5.0951
 30
0
 11
9.5278
 21
5.1228
 31
0
  0
ENDBLK
  8
LAYER1
  0
BLOCK
  8
LAYER1
  2
Group53
 70
     0
 10
0
 20
0
 30
0
  0
INSERT
  8
LAYER1
  2
Group51
 10
0
 20
0
 30
0
  0
INSERT
  8
LAYER1
  2
Group52
 10
0
 20
0
 30
0
  0
ENDBLK
  8
LAYER1
  0
BLOCK
  8
LAYER1
  2
Group54
 70
     0
 10
0
 20
0
 30
0
  0
LINE
  8
LAYER1
  6
CONTINUOUS
 62
     7
 10
9.5
 20
5.2201
 30
0
 11
9.5278
 21
5.2478
 31
0
  0
LINE
  8
LAYER1
  6
CONTINUOUS
 62
     7
 10
9.5139
 20
3.3312
 30
0
 11
9.5139
 21
3.5812
 31
0
  0
LINE
  8
LAYER1
  6
CONTINUOUS
 62
     7
 10
9.5139
 20
3.3312
 30
0
 11
9.6806
 21
3.3312
 31
0
  0
POLYLINE
  8
LAYER1
  6
CONTINUOUS
 62
     7
 66
     1
 70
     0
 40
0.001
 41
0.001
  0
VERTEX
  8
LAYER1
 10
9.5764
 20
3.3451
 30
0
 70
     0
  0
VERTEX
  8
LAYER1
 10
9.5617
 20
3.3512
 30
0
 70
     0
  0
VERTEX
  8
LAYER1
 10
9.5556
 20
3.3659
 30
0
 70
     0
  0
SEQEND
  0
POLYLINE
  8
LAYER1
  6
CONTINUOUS
 62
     7
 66
     1
 70
     0
 40
0.001
 41
0.001
  0
VERTEX
  8
LAYER1
 10
9.5208
 20
3.5812
 30
0
 70
     0
  0
VERTEX
  8
LAYER1
 10
9.5343
 20
3.5784
 30
0
 70
     0
  0
VERTEX
  8
LAYER1
 10
9.5453
 20
3.5709
 30
0
 70
     0
  0
VERTEX
  8
LAYER1
 10
9.5528
 20
3.5599
 30
0
 70
     0
  0
VERTEX
  8
LAYER1
 10
9.5556
 20
3.5464
 30
0
 70
     0
  0
SEQEND
  0
LINE
  8
LAYER1
  6
CONTINUOUS
 62
     7
 10
9.5556
 20
3.3728
 30
0
 11
9.5556
 21
3.5395
 31
0
  0
POLYLINE
  8
LAYER1
  6
CONTINUOUS
 62
     7
 66
     1
 70
     0
 40
0.001
 41
0.001
  0
VERTEX
  8
LAYER1
 10
9.6597
 20
3.3589
 30
0
 70
     0
  0
VERTEX
  8
LAYER1
 10
9.6732
 20
3.3562
 30
0
 70
     0
  0
VERTEX
  8
LAYER1
 10
9.6842
 20
3.3487
 30
0
 70
     0
  0
VERTEX
  8
LAYER1
 10
9.6917
 20
3.3377
 30
0
 70
     0
  0
VERTEX
  8
LAYER1
 10
9.6944
 20
3.3242
 30
0
 70
     0
  0
SEQEND
  0
ENDBLK
  8
LAYER1
  0
BLOCK
  8
LAYER1
  2
Group55
 70
     0
 10
0
 20
0
 30
0
  0
LINE
  8
LAYER1
  6
CONTINUOUS
 62
     7
 10
9.5694
 20
3.3589
 30
0
 11
9.6528
 21
3.3589
 31
0
  0
LINE
  8
LAYER1
  6
CONTINUOUS
 62
     7
 10
9.5833
 20
3.3312
 30
0
 11
9.6111
 21
3.3589
 31
0
  0
LINE
  8
LAYER1
  6
CONTINUOUS
 62
     7
 10
9.5139
 20
3.3867
 30
0
 11
9.5556
 21
3.4284
 31
0
  0
LINE
  8
LAYER1
  6
CONTINUOUS
 62
     7
 10
9.5139
 20
3.5256
 30
0
 11
9.5417
 21
3.5534
 31
0
  0
LINE
  8
LAYER1
  6
CONTINUOUS
 62
     7
 10
9.625
 20
3.3312
 30
0
 11
9.6667
 21
3.3589
 31
0
  0
LINE
  8
LAYER1
  6
CONTINUOUS
 62
     7
 10
9.5139
 20
3.3451
 30
0
 11
9.5556
 21
3.3728
 31
0
  0
ENDBLK
  8
LAYER1
  0
BLOCK
  8
LAYER1
  2
Group56
 70
     0
 10
0
 20
0
 30
0
  0
INSERT
  8
LAYER1
  2
Group54
 10
0
 20
0
 30
0
  0
INSERT
  8
LAYER1
  2
Group55
 10
0
 20
0
 30
0
  0
ENDBLK
  8
LAYER1
  0
BLOCK
  8
LAYER1
  2
Group57
 70
     0
 10
0
 20
0
 30
0
  0
LINE
  8
LAYER1
  6
CONTINUOUS
 62
     7
 10
9.5139
 20
3.4839
 30
0
 11
9.5556
 21
3.5117
 31
0
  0
LINE
  8
LAYER1
  6
CONTINUOUS
 62
     7
 10
9.5
 20
1.4978
 30
0
 11
9.5
 21
1.7062
 31
0
  0
LINE
  8
LAYER1
  6
CONTINUOUS
 62
     7
 10
9.5
 20
1.4978
 30
0
 11
9.7083
 21
1.4978
 31
0
  0
POLYLINE
  8
LAYER1
  6
CONTINUOUS
 62
     7
 66
     1
 70
     0
 40
0.001
 41
0.001
  0
VERTEX
  8
LAYER1
 10
9.5069
 20
1.7062
 30
0
 70
     0
  0
VERTEX
  8
LAYER1
 10
9.5204
 20
1.7034
 30
0
 70
     0
  0
VERTEX
  8
LAYER1
 10
9.5314
 20
1.6959
 30
0
 70
     0
  0
VERTEX
  8
LAYER1
 10
9.5389
 20
1.6849
 30
0
 70
     0
  0
VERTEX
  8
LAYER1
 10
9.5417
 20
1.6714
 30
0
 70
     0
  0
SEQEND
  0
POLYLINE
  8
LAYER1
  6
CONTINUOUS
 62
     7
 66
     1
 70
     0
 40
0.001
 41
0.001
  0
VERTEX
  8
LAYER1
 10
9.6736
 20
1.5256
 30
0
 70
     0
  0
VERTEX
  8
LAYER1
 10
9.6871
 20
1.5229
 30
0
 70
     0
  0
VERTEX
  8
LAYER1
 10
9.6981
 20
1.5154
 30
0
 70
     0
  0
VERTEX
  8
LAYER1
 10
9.7056
 20
1.5043
 30
0
 70
     0
  0
VERTEX
  8
LAYER1
 10
9.7083
 20
1.4909
 30
0
 70
     0
  0
SEQEND
  0
POLYLINE
  8
LAYER1
  6
CONTINUOUS
 62
     7
 66
     1
 70
     0
 40
0.001
 41
0.001
  0
VERTEX
  8
LAYER1
 10
9.5694
 20
1.4978
 30
0
 70
     0
  0
VERTEX
  8
LAYER1
 10
9.5533
 20
1.5011
 30
0
 70
     0
  0
VERTEX
  8
LAYER1
 10
9.54
 20
1.5101
 30
0
 70
     0
  0
VERTEX
  8
LAYER1
 10
9.5311
 20
1.5233
 30
0
 70
     0
  0
VERTEX
  8
LAYER1
 10
9.5278
 20
1.5395
 30
0
 70
     0
  0
SEQEND
  0
LINE
  8
LAYER1
  6
CONTINUOUS
 62
     7
 10
9.5556
 20
1.5256
 30
0
 11
9.6806
 21
1.5256
 31
0
  0
ENDBLK
  8
LAYER1
  0
BLOCK
  8
LAYER1
  2
Group58
 70
     0
 10
0
 20
0
 30
0
  0
LINE
  8
LAYER1
  6
CONTINUOUS
 62
     7
 10
9.5278
 20
1.5534
 30
0
 11
9.5278
 21
1.6645
 31
0
  0
LINE
  8
LAYER1
  6
CONTINUOUS
 62
     7
 10
9.6389
 20
1.4978
 30
0
 11
9.6667
 21
1.5256
 31
0
  0
LINE
  8
LAYER1
  6
CONTINUOUS
 62
     7
 10
9.5
 20
1.4978
 30
0
 11
9.5417
 21
1.5256
 31
0
  0
LINE
  8
LAYER1
  6
CONTINUOUS
 62
     7
 10
9.5
 20
1.6228
 30
0
 11
9.5278
 21
1.6506
 31
0
  0
LINE
  8
LAYER1
  6
CONTINUOUS
 62
     7
 10
9.6806
 20
1.4978
 30
0
 11
9.6944
 21
1.5117
 31
0
  0
LINE
  8
LAYER1
  6
CONTINUOUS
 62
     7
 10
9.5417
 20
1.4978
 30
0
 11
9.5833
 21
1.5256
 31
0
  0
ENDBLK
  8
LAYER1
  0
BLOCK
  8
LAYER1
  2
Group59
 70
     0
 10
0
 20
0
 30
0
  0
INSERT
  8
LAYER1
  2
Group57
 10
0
 20
0
 30
0
  0
INSERT
  8
LAYER1
  2
Group58
 10
0
 20
0
 30
0
  0
ENDBLK
  8
LAYER1
  0
BLOCK
  8
LAYER1
  2
Group60
 70
     0
 10
0
 20
0
 30
0
  0
LINE
  8
LAYER1
  6
CONTINUOUS
 62
     7
 10
9.5
 20
1.5812
 30
0
 11
9.5278
 21
1.6089
 31
0
  0
LINE
  8
LAYER1
  6
CONTINUOUS
 62
     7
 10
11.4306
 20
9.0812
 30
0
 11
11.4306
 21
9.2895
 31
0
  0
LINE
  8
LAYER1
  6
CONTINUOUS
 62
     7
 10
11.4306
 20
9.0812
 30
0
 11
11.5972
 21
9.0812
 31
0
  0
POLYLINE
  8
LAYER1
  6
CONTINUOUS
 62
     7
 66
     1
 70
     0
 40
0.001
 41
0.001
  0
VERTEX
  8
LAYER1
 10
11.4861
 20
9.0951
 30
0
 70
     0
  0
VERTEX
  8
LAYER1
 10
11.4665
 20
9.1032
 30
0
 70
     0
  0
VERTEX
  8
LAYER1
 10
11.4583
 20
9.1228
 30
0
 70
     0
  0
SEQEND
  0
POLYLINE
  8
LAYER1
  6
CONTINUOUS
 62
     7
 66
     1
 70
     0
 40
0.001
 41
0.001
  0
VERTEX
  8
LAYER1
 10
11.4444
 20
9.2895
 30
0
 70
     0
  0
VERTEX
  8
LAYER1
 10
11.464
 20
9.2813
 30
0
 70
     0
  0
VERTEX
  8
LAYER1
 10
11.4722
 20
9.2617
 30
0
 70
     0
  0
SEQEND
  0
LINE
  8
LAYER1
  6
CONTINUOUS
 62
     7
 10
11.4583
 20
9.1228
 30
0
 11
11.4583
 21
9.2756
 31
0
  0
POLYLINE
  8
LAYER1
  6
CONTINUOUS
 62
     7
 66
     1
 70
     0
 40
0.001
 41
0.001
  0
VERTEX
  8
LAYER1
 10
11.5833
 20
9.0951
 30
0
 70
     0
  0
VERTEX
  8
LAYER1
 10
11.6029
 20
9.0869
 30
0
 70
     0
  0
VERTEX
  8
LAYER1
 10
11.6111
 20
9.0673
 30
0
 70
     0
  0
SEQEND
  0
ENDBLK
  8
LAYER1
  0
BLOCK
  8
LAYER1
  2
Group61
 70
     0
 10
0
 20
0
 30
0
  0
LINE
  8
LAYER1
  6
CONTINUOUS
 62
     7
 10
11.4722
 20
9.0951
 30
0
 11
11.5833
 21
9.0951
 31
0
  0
LINE
  8
LAYER1
  6
CONTINUOUS
 62
     7
 10
11.5
 20
9.0812
 30
0
 11
11.5139
 21
9.0951
 31
0
  0
LINE
  8
LAYER1
  6
CONTINUOUS
 62
     7
 10
11.4306
 20
9.1506
 30
0
 11
11.4583
 21
9.1645
 31
0
  0
LINE
  8
LAYER1
  6
CONTINUOUS
 62
     7
 10
11.4306
 20
9.2756
 30
0
 11
11.4444
 21
9.2895
 31
0
  0
LINE
  8
LAYER1
  6
CONTINUOUS
 62
     7
 10
11.5417
 20
9.0812
 30
0
 11
11.5694
 21
9.0951
 31
0
  0
LINE
  8
LAYER1
  6
CONTINUOUS
 62
     7
 10
11.4306
 20
9.1089
 30
0
 11
11.4583
 21
9.1228
 31
0
  0
ENDBLK
  8
LAYER1
  0
BLOCK
  8
LAYER1
  2
Group62
 70
     0
 10
0
 20
0
 30
0
  0
INSERT
  8
LAYER1
  2
Group60
 10
0
 20
0
 30
0
  0
INSERT
  8
LAYER1
  2
Group61
 10
0
 20
0
 30
0
  0
ENDBLK
  8
LAYER1
  0
BLOCK
  8
LAYER1
  2
Group63
 70
     0
 10
0
 20
0
 30
0
  0
LINE
  8
LAYER1
  6
CONTINUOUS
 62
     7
 10
11.4306
 20
9.2339
 30
0
 11
11.4583
 21
9.2617
 31
0
  0
LINE
  8
LAYER1
  6
CONTINUOUS
 62
     7
 10
11.4306
 20
7.2201
 30
0
 11
11.5972
 21
7.2201
 31
0
  0
LINE
  8
LAYER1
  6
CONTINUOUS
 62
     7
 10
11.4306
 20
7.2201
 30
0
 11
11.4306
 21
7.3867
 31
0
  0
POLYLINE
  8
LAYER1
  6
CONTINUOUS
 62
     7
 66
     1
 70
     0
 40
0.001
 41
0.001
  0
VERTEX
  8
LAYER1
 10
11.4444
 20
7.3867
 30
0
 70
     0
  0
VERTEX
  8
LAYER1
 10
11.464
 20
7.3785
 30
0
 70
     0
  0
VERTEX
  8
LAYER1
 10
11.4722
 20
7.3589
 30
0
 70
     0
  0
SEQEND
  0
POLYLINE
  8
LAYER1
  6
CONTINUOUS
 62
     7
 66
     1
 70
     0
 40
0.001
 41
0.001
  0
VERTEX
  8
LAYER1
 10
11.5833
 20
7.2478
 30
0
 70
     0
  0
VERTEX
  8
LAYER1
 10
11.6029
 20
7.2397
 30
0
 70
     0
  0
VERTEX
  8
LAYER1
 10
11.6111
 20
7.2201
 30
0
 70
     0
  0
SEQEND
  0
POLYLINE
  8
LAYER1
  6
CONTINUOUS
 62
     7
 66
     1
 70
     0
 40
0.001
 41
0.001
  0
VERTEX
  8
LAYER1
 10
11.4931
 20
7.2339
 30
0
 70
     0
  0
VERTEX
  8
LAYER1
 10
11.4796
 20
7.2367
 30
0
 70
     0
  0
VERTEX
  8
LAYER1
 10
11.4685
 20
7.2442
 30
0
 70
     0
  0
VERTEX
  8
LAYER1
 10
11.4611
 20
7.2552
 30
0
 70
     0
  0
VERTEX
  8
LAYER1
 10
11.4583
 20
7.2687
 30
0
 70
     0
  0
SEQEND
  0
LINE
  8
LAYER1
  6
CONTINUOUS
 62
     7
 10
11.4861
 20
7.2478
 30
0
 11
11.5833
 21
7.2478
 31
0
  0
ENDBLK
  8
LAYER1
  0
BLOCK
  8
LAYER1
  2
Group64
 70
     0
 10
0
 20
0
 30
0
  0
LINE
  8
LAYER1
  6
CONTINUOUS
 62
     7
 10
11.4583
 20
7.2756
 30
0
 11
11.4583
 21
7.3728
 31
0
  0
LINE
  8
LAYER1
  6
CONTINUOUS
 62
     7
 10
11.5
 20
7.2201
 30
0
 11
11.5139
 21
7.2478
 31
0
  0
LINE
  8
LAYER1
  6
CONTINUOUS
 62
     7
 10
11.4306
 20
7.2895
 30
0
 11
11.4583
 21
7.3034
 31
0
  0
LINE
  8
LAYER1
  6
CONTINUOUS
 62
     7
 10
11.5417
 20
7.2201
 30
0
 11
11.5694
 21
7.2478
 31
0
  0
LINE
  8
LAYER1
  6
CONTINUOUS
 62
     7
 10
11.4306
 20
7.2478
 30
0
 11
11.4583
 21
7.2617
 31
0
  0
ENDBLK
  8
LAYER1
  0
BLOCK
  8
LAYER1
  2
Group65
 70
     0
 10
0
 20
0
 30
0
  0
INSERT
  8
LAYER1
  2
Group63
 10
0
 20
0
 30
0
  0
INSERT
  8
LAYER1
  2
Group64
 10
0
 20
0
 30
0
  0
ENDBLK
  8
LAYER1
  0
BLOCK
  8
LAYER1
  2
Group66
 70
     0
 10
0
 20
0
 30
0
  0
LINE
  8
LAYER1
  6
CONTINUOUS
 62
     7
 10
11.4306
 20
7.3728
 30
0
 11
11.4444
 21
7.3867
 31
0
  0
LINE
  8
LAYER1
  6
CONTINUOUS
 62
     7
 10
11.4444
 20
4.9701
 30
0
 11
11.4444
 21
5.1228
 31
0
  0
LINE
  8
LAYER1
  6
CONTINUOUS
 62
     7
 10
11.4444
 20
4.9701
 30
0
 11
11.5833
 21
4.9701
 31
0
  0
POLYLINE
  8
LAYER1
  6
CONTINUOUS
 62
     7
 66
     1
 70
     0
 40
0.001
 41
0.001
  0
VERTEX
  8
LAYER1
 10
11.4444
 20
5.1228
 30
0
 70
     0
  0
VERTEX
  8
LAYER1
 10
11.464
 20
5.1147
 30
0
 70
     0
  0
VERTEX
  8
LAYER1
 10
11.4722
 20
5.0951
 30
0
 70
     0
  0
SEQEND
  0
POLYLINE
  8
LAYER1
  6
CONTINUOUS
 62
     7
 66
     1
 70
     0
 40
0.001
 41
0.001
  0
VERTEX
  8
LAYER1
 10
11.5694
 20
4.9978
 30
0
 70
     0
  0
VERTEX
  8
LAYER1
 10
11.589
 20
4.9897
 30
0
 70
     0
  0
VERTEX
  8
LAYER1
 10
11.5972
 20
4.9701
 30
0
 70
     0
  0
SEQEND
  0
POLYLINE
  8
LAYER1
  6
CONTINUOUS
 62
     7
 66
     1
 70
     0
 40
0.001
 41
0.001
  0
VERTEX
  8
LAYER1
 10
11.4861
 20
4.9839
 30
0
 70
     0
  0
VERTEX
  8
LAYER1
 10
11.4665
 20
4.9921
 30
0
 70
     0
  0
VERTEX
  8
LAYER1
 10
11.4583
 20
5.0117
 30
0
 70
     0
  0
SEQEND
  0
LINE
  8
LAYER1
  6
CONTINUOUS
 62
     7
 10
11.4861
 20
4.9978
 30
0
 11
11.5694
 21
4.9978
 31
0
  0
ENDBLK
  8
LAYER1
  0
BLOCK
  8
LAYER1
  2
Group67
 70
     0
 10
0
 20
0
 30
0
  0
LINE
  8
LAYER1
  6
CONTINUOUS
 62
     7
 10
11.4583
 20
5.0117
 30
0
 11
11.4583
 21
5.0951
 31
0
  0
LINE
  8
LAYER1
  6
CONTINUOUS
 62
     7
 10
11.4583
 20
4.9701
 30
0
 11
11.4861
 21
4.9978
 31
0
  0
LINE
  8
LAYER1
  6
CONTINUOUS
 62
     7
 10
11.4444
 20
5.0812
 30
0
 11
11.4583
 21
5.1089
 31
0
  0
LINE
  8
LAYER1
  6
CONTINUOUS
 62
     7
 10
11.5
 20
4.9701
 30
0
 11
11.5278
 21
4.9978
 31
0
  0
ENDBLK
  8
LAYER1
  0
BLOCK
  8
LAYER1
  2
Group68
 70
     0
 10
0
 20
0
 30
0
  0
INSERT
  8
LAYER1
  2
Group66
 10
0
 20
0
 30
0
  0
INSERT
  8
LAYER1
  2
Group67
 10
0
 20
0
 30
0
  0
ENDBLK
  8
LAYER1
  0
BLOCK
  8
LAYER1
  2
Group69
 70
     0
 10
0
 20
0
 30
0
  0
LINE
  8
LAYER1
  6
CONTINUOUS
 62
     7
 10
11.4444
 20
5.0395
 30
0
 11
11.4583
 21
5.0673
 31
0
  0
LINE
  8
LAYER1
  6
CONTINUOUS
 62
     7
 10
11.4583
 20
3.2062
 30
0
 11
11.4583
 21
3.3312
 31
0
  0
LINE
  8
LAYER1
  6
CONTINUOUS
 62
     7
 10
11.4583
 20
3.2062
 30
0
 11
11.5833
 21
3.2062
 31
0
  0
POLYLINE
  8
LAYER1
  6
CONTINUOUS
 62
     7
 66
     1
 70
     0
 40
0.001
 41
0.001
  0
VERTEX
  8
LAYER1
 10
11.5
 20
3.2062
 30
0
 70
     0
  0
VERTEX
  8
LAYER1
 10
11.4804
 20
3.2143
 30
0
 70
     0
  0
VERTEX
  8
LAYER1
 10
11.4722
 20
3.2339
 30
0
 70
     0
  0
SEQEND
  0
POLYLINE
  8
LAYER1
  6
CONTINUOUS
 62
     7
 66
     1
 70
     0
 40
0.001
 41
0.001
  0
VERTEX
  8
LAYER1
 10
11.4583
 20
3.3312
 30
0
 70
     0
  0
VERTEX
  8
LAYER1
 10
11.4779
 20
3.323
 30
0
 70
     0
  0
VERTEX
  8
LAYER1
 10
11.4861
 20
3.3034
 30
0
 70
     0
  0
SEQEND
  0
LINE
  8
LAYER1
  6
CONTINUOUS
 62
     7
 10
11.4722
 20
3.2478
 30
0
 11
11.4722
 21
3.3173
 31
0
  0
POLYLINE
  8
LAYER1
  6
CONTINUOUS
 62
     7
 66
     1
 70
     0
 40
0.001
 41
0.001
  0
VERTEX
  8
LAYER1
 10
11.5694
 20
3.2339
 30
0
 70
     0
  0
VERTEX
  8
LAYER1
 10
11.589
 20
3.2258
 30
0
 70
     0
  0
VERTEX
  8
LAYER1
 10
11.5972
 20
3.2062
 30
0
 70
     0
  0
SEQEND
  0
ENDBLK
  8
LAYER1
  0
BLOCK
  8
LAYER1
  2
Group70
 70
     0
 10
0
 20
0
 30
0
  0
LINE
  8
LAYER1
  6
CONTINUOUS
 62
     7
 10
11.4861
 20
3.2339
 30
0
 11
11.5556
 21
3.2339
 31
0
  0
LINE
  8
LAYER1
  6
CONTINUOUS
 62
     7
 10
11.4722
 20
3.2062
 30
0
 11
11.5
 21
3.2339
 31
0
  0
LINE
  8
LAYER1
  6
CONTINUOUS
 62
     7
 10
11.4583
 20
3.3173
 30
0
 11
11.4583
 21
3.3312
 31
0
  0
LINE
  8
LAYER1
  6
CONTINUOUS
 62
     7
 10
11.5278
 20
3.2062
 30
0
 11
11.5417
 21
3.2339
 31
0
  0
ENDBLK
  8
LAYER1
  0
BLOCK
  8
LAYER1
  2
Group71
 70
     0
 10
0
 20
0
 30
0
  0
INSERT
  8
LAYER1
  2
Group69
 10
0
 20
0
 30
0
  0
INSERT
  8
LAYER1
  2
Group70
 10
0
 20
0
 30
0
  0
ENDBLK
  8
LAYER1
  0
BLOCK
  8
LAYER1
  2
Group72
 70
     0
 10
0
 20
0
 30
0
  0
LINE
  8
LAYER1
  6
CONTINUOUS
 62
     7
 10
11.4583
 20
3.2756
 30
0
 11
11.4722
 21
3.2895
 31
0
  0
LINE
  8
LAYER1
  6
CONTINUOUS
 62
     7
 10
11.4583
 20
1.4284
 30
0
 11
11.4583
 21
1.5395
 31
0
  0
LINE
  8
LAYER1
  6
CONTINUOUS
 62
     7
 10
11.4583
 20
1.4284
 30
0
 11
11.5694
 21
1.4284
 31
0
  0
POLYLINE
  8
LAYER1
  6
CONTINUOUS
 62
     7
 66
     1
 70
     0
 40
0.001
 41
0.001
  0
VERTEX
  8
LAYER1
 10
11.4722
 20
1.5395
 30
0
 70
     0
  0
VERTEX
  8
LAYER1
 10
11.4918
 20
1.5313
 30
0
 70
     0
  0
VERTEX
  8
LAYER1
 10
11.5
 20
1.5117
 30
0
 70
     0
  0
SEQEND
  0
POLYLINE
  8
LAYER1
  6
CONTINUOUS
 62
     7
 66
     1
 70
     0
 40
0.001
 41
0.001
  0
VERTEX
  8
LAYER1
 10
11.5556
 20
1.4562
 30
0
 70
     0
  0
VERTEX
  8
LAYER1
 10
11.5752
 20
1.448
 30
0
 70
     0
  0
VERTEX
  8
LAYER1
 10
11.5833
 20
1.4284
 30
0
 70
     0
  0
SEQEND
  0
POLYLINE
  8
LAYER1
  6
CONTINUOUS
 62
     7
 66
     1
 70
     0
 40
0.001
 41
0.001
  0
VERTEX
  8
LAYER1
 10
11.5069
 20
1.4284
 30
0
 70
     0
  0
VERTEX
  8
LAYER1
 10
11.4922
 20
1.4345
 30
0
 70
     0
  0
VERTEX
  8
LAYER1
 10
11.4861
 20
1.4492
 30
0
 70
     0
  0
SEQEND
  0
LINE
  8
LAYER1
  6
CONTINUOUS
 62
     7
 10
11.4861
 20
1.4562
 30
0
 11
11.4861
 21
1.5117
 31
0
  0
ENDBLK
  8
LAYER1
  0
BLOCK
  8
LAYER1
  2
Group73
 70
     0
 10
0
 20
0
 30
0
  0
LINE
  8
LAYER1
  6
CONTINUOUS
 62
     7
 10
11.5
 20
1.4562
 30
0
 11
11.5417
 21
1.4562
 31
0
  0
LINE
  8
LAYER1
  6
CONTINUOUS
 62
     7
 10
11.5139
 20
1.4284
 30
0
 11
11.5278
 21
1.4562
 31
0
  0
LINE
  8
LAYER1
  6
CONTINUOUS
 62
     7
 10
11.4583
 20
1.5117
 30
0
 11
11.4722
 21
1.5256
 31
0
  0
LINE
  8
LAYER1
  6
CONTINUOUS
 62
     7
 10
11.5556
 20
1.4284
 30
0
 11
11.5694
 21
1.4423
 31
0
  0
ENDBLK
  8
LAYER1
  0
BLOCK
  8
LAYER1
  2
Group74
 70
     0
 10
0
 20
0
 30
0
  0
INSERT
  8
LAYER1
  2
Group72
 10
0
 20
0
 30
0
  0
INSERT
  8
LAYER1
  2
Group73
 10
0
 20
0
 30
0
  0
ENDBLK
  8
LAYER1
  0
BLOCK
  8
LAYER1
  2
Group75
 70
     0
 10
0
 20
0
 30
0
  0
LINE
  8
LAYER1
  6
CONTINUOUS
 62
     7
 10
11.4583
 20
1.4701
 30
0
 11
11.4861
 21
1.4978
 31
0
  0
LINE
  8
LAYER1
  6
CONTINUOUS
 62
     7
 10
13.4306
 20
9.0812
 30
0
 11
13.4306
 21
9.1784
 31
0
  0
LINE
  8
LAYER1
  6
CONTINUOUS
 62
     7
 10
13.4306
 20
9.0812
 30
0
 11
13.5278
 21
9.0812
 31
0
  0
POLYLINE
  8
LAYER1
  6
CONTINUOUS
 62
     7
 66
     1
 70
     0
 40
0.001
 41
0.001
  0
VERTEX
  8
LAYER1
 10
13.4306
 20
9.1784
 30
0
 70
     0
  0
VERTEX
  8
LAYER1
 10
13.4403
 20
9.1743
 30
0
 70
     0
  0
VERTEX
  8
LAYER1
 10
13.4444
 20
9.1645
 30
0
 70
     0
  0
SEQEND
  0
POLYLINE
  8
LAYER1
  6
CONTINUOUS
 62
     7
 66
     1
 70
     0
 40
0.001
 41
0.001
  0
VERTEX
  8
LAYER1
 10
13.5139
 20
9.0951
 30
0
 70
     0
  0
VERTEX
  8
LAYER1
 10
13.5237
 20
9.091
 30
0
 70
     0
  0
VERTEX
  8
LAYER1
 10
13.5278
 20
9.0812
 30
0
 70
     0
  0
SEQEND
  0
POLYLINE
  8
LAYER1
  6
CONTINUOUS
 62
     7
 66
     1
 70
     0
 40
0.001
 41
0.001
  0
VERTEX
  8
LAYER1
 10
13.4653
 20
9.0812
 30
0
 70
     0
  0
VERTEX
  8
LAYER1
 10
13.4506
 20
9.0873
 30
0
 70
     0
  0
VERTEX
  8
LAYER1
 10
13.4444
 20
9.102
 30
0
 70
     0
  0
SEQEND
  0
LINE
  8
LAYER1
  6
CONTINUOUS
 62
     7
 10
13.4444
 20
9.1089
 30
0
 11
13.4444
 21
9.1645
 31
0
  0
ENDBLK
  8
LAYER1
  0
BLOCK
  8
LAYER1
  2
Group76
 70
     0
 10
0
 20
0
 30
0
  0
LINE
  8
LAYER1
  6
CONTINUOUS
 62
     7
 10
13.4583
 20
9.0951
 30
0
 11
13.5139
 21
9.0951
 31
0
  0
LINE
  8
LAYER1
  6
CONTINUOUS
 62
     7
 10
13.4306
 20
9.1228
 30
0
 11
13.4444
 21
9.1228
 31
0
  0
ENDBLK
  8
LAYER1
  0
BLOCK
  8
LAYER1
  2
Group77
 70
     0
 10
0
 20
0
 30
0
  0
INSERT
  8
LAYER1
  2
Group75
 10
0
 20
0
 30
0
  0
INSERT
  8
LAYER1
  2
Group76
 10
0
 20
0
 30
0
  0
ENDBLK
  8
LAYER1
  0
BLOCK
  8
LAYER1
  2
Group78
 70
     0
 10
0
 20
0
 30
0
  0
LINE
  8
LAYER1
  6
CONTINUOUS
 62
     7
 10
13.4306
 20
9.0812
 30
0
 11
13.4444
 21
9.0951
 31
0
  0
LINE
  8
LAYER1
  6
CONTINUOUS
 62
     7
 10
13.4306
 20
7.2201
 30
0
 11
13.4306
 21
7.3034
 31
0
  0
LINE
  8
LAYER1
  6
CONTINUOUS
 62
     7
 10
13.4306
 20
7.2201
 30
0
 11
13.5139
 21
7.2201
 31
0
  0
POLYLINE
  8
LAYER1
  6
CONTINUOUS
 62
     7
 66
     1
 70
     0
 40
0.001
 41
0.001
  0
VERTEX
  8
LAYER1
 10
13.4653
 20
7.2201
 30
0
 70
     0
  0
VERTEX
  8
LAYER1
 10
13.4506
 20
7.2262
 30
0
 70
     0
  0
VERTEX
  8
LAYER1
 10
13.4444
 20
7.2409
 30
0
 70
     0
  0
SEQEND
  0
POLYLINE
  8
LAYER1
  6
CONTINUOUS
 62
     7
 66
     1
 70
     0
 40
0.001
 41
0.001
  0
VERTEX
  8
LAYER1
 10
13.4444
 20
7.3034
 30
0
 70
     0
  0
VERTEX
  8
LAYER1
 10
13.4542
 20
7.2993
 30
0
 70
     0
  0
VERTEX
  8
LAYER1
 10
13.4583
 20
7.2895
 30
0
 70
     0
  0
SEQEND
  0
LINE
  8
LAYER1
  6
CONTINUOUS
 62
     7
 10
13.4444
 20
7.2478
 30
0
 11
13.4444
 21
7.2895
 31
0
  0
POLYLINE
  8
LAYER1
  6
CONTINUOUS
 62
     7
 66
     1
 70
     0
 40
0.001
 41
0.001
  0
VERTEX
  8
LAYER1
 10
13.5139
 20
7.2339
 30
0
 70
     0
  0
VERTEX
  8
LAYER1
 10
13.5237
 20
7.2299
 30
0
 70
     0
  0
VERTEX
  8
LAYER1
 10
13.5278
 20
7.2201
 30
0
 70
     0
  0
SEQEND
  0
ENDBLK
  8
LAYER1
  0
BLOCK
  8
LAYER1
  2
Group79
 70
     0
 10
0
 20
0
 30
0
  0
LINE
  8
LAYER1
  6
CONTINUOUS
 62
     7
 10
13.4583
 20
7.2339
 30
0
 11
13.5139
 21
7.2339
 31
0
  0
LINE
  8
LAYER1
  6
CONTINUOUS
 62
     7
 10
13.4306
 20
7.2339
 30
0
 11
13.4444
 21
7.2478
 31
0
  0
ENDBLK
  8
LAYER1
  0
BLOCK
  8
LAYER1
  2
Group80
 70
     0
 10
0
 20
0
 30
0
  0
INSERT
  8
LAYER1
  2
Group78
 10
0
 20
0
 30
0
  0
INSERT
  8
LAYER1
  2
Group79
 10
0
 20
0
 30
0
  0
ENDBLK
  8
LAYER1
  0
BLOCK
  8
LAYER1
  2
Group81
 70
     0
 10
0
 20
0
 30
0
  0
TEXT
  8
LAYER1
 62
     7
 10
2.4867
 20
0.0319
 30
0
 40
0.1389
  1
- 4-190 -
 50
0
999
Geneva
  0
TEXT
  8
LAYER1
 62
     7
 10
10.7228
 20
0.0319
 30
0
 40
0.1389
  1
- 4-191 -
 50
0
999
Geneva
  0
LINE
  8
LAYER1
  6
CONTINUOUS
 62
     7
 10
0.1944
 20
10.8173
 30
0
 11
4.6944
 21
10.8173
 31
0
  0
TEXT
  8
LAYER1
 62
     7
 10
0.195
 20
10.5735
 30
0
 40
0.125
  1
Angles - Equal/Unequal Legs
 50
0
999
Geneva
  0
TEXT
  8
LAYER1
 62
     7
 10
0.5978
 20
8.7263
 30
0
 40
0.0833
  1
L 9x4x 9/16
 50
0
999
Geneva
  0
TEXT
  8
LAYER1
 62
     7
 10
0.1811
 20
8.5735
 30
0
 40
0.0833
  1
Angles-Equal/Unequal legs
 50
0
999
Geneva
  0
INSERT
  8
LAYER1
  2
Group3
 10
0
 20
0
 30
0
  0
INSERT
  8
LAYER1
  2
Group6
 10
0
 20
0
 30
0
  0
TEXT
  8
LAYER1
 62
     7
 10
0.6395
 20
6.8513
 30
0
 40
0.0833
  1
L 8x8x 5/8
 50
0
999
Geneva
  0
TEXT
  8
LAYER1
 62
     7
 10
0.1811
 20
6.6985
 30
0
 40
0.0833
  1
Angles-Equal/Unequal legs
 50
0
999
Geneva
  0
INSERT
  8
LAYER1
  2
Group9
 10
0
 20
0
 30
0
  0
TEXT
  8
LAYER1
 62
     7
 10
0.6395
 20
4.7124
 30
0
 40
0.0833
  1
L 8x6x 5/8
 50
0
999
Geneva
  0
TEXT
  8
LAYER1
 62
     7
 10
0.1811
 20
4.5458
 30
0
 40
0.0833
  1
Angles-Equal/Unequal legs
 50
0
999
Geneva
  0
INSERT
  8
LAYER1
  2
Group12
 10
0
 20
0
 30
0
  0
TEXT
  8
LAYER1
 62
     7
 10
0.5978
 20
3.0041
 30
0
 40
0.0833
  1
L 8x4x 9/16
 50
0
999
Geneva
  0
TEXT
  8
LAYER1
 62
     7
 10
0.1811
 20
2.8513
 30
0
 40
0.0833
  1
Angles-Equal/Unequal legs
 50
0
999
Geneva
  0
INSERT
  8
LAYER1
  2
Group15
 10
0
 20
0
 30
0
  0
TEXT
  8
LAYER1
 62
     7
 10
0.6395
 20
1.1013
 30
0
 40
0.0833
  1
L 7x4x 5/8
 50
0
999
Geneva
  0
TEXT
  8
LAYER1
 62
     7
 10
0.1811
 20
0.9346
 30
0
 40
0.0833
  1
Angles-Equal/Unequal legs
 50
0
999
Geneva
  0
INSERT
  8
LAYER1
  2
Group18
 10
0
 20
0
 30
0
  0
TEXT
  8
LAYER1
 62
     7
 10
2.7923
 20
8.7263
 30
0
 40
0.0833
  1
L 6x6x 5/8
 50
0
999
Geneva
  0
TEXT
  8
LAYER1
 62
     7
 10
2.3339
 20
8.5735
 30
0
 40
0.0833
  1
Angles-Equal/Unequal legs
 50
0
999
Geneva
  0
INSERT
  8
LAYER1
  2
Group21
 10
0
 20
0
 30
0
  0
TEXT
  8
LAYER1
 62
     7
 10
2.7923
 20
6.8513
 30
0
 40
0.0833
  1
L 6x4x 5/8
 50
0
999
Geneva
  0
TEXT
  8
LAYER1
 62
     7
 10
2.3339
 20
6.6985
 30
0
 40
0.0833
  1
Angles-Equal/Unequal legs
 50
0
999
Geneva
  0
INSERT
  8
LAYER1
  2
Group24
 10
0
 20
0
 30
0
  0
TEXT
  8
LAYER1
 62
     7
 10
2.7367
 20
4.7124
 30
0
 40
0.0833
  1
L 6x3.5x 3/8
 50
0
999
Geneva
  0
TEXT
  8
LAYER1
 62
     7
 10
2.3339
 20
4.5458
 30
0
 40
0.0833
  1
Angles-Equal/Unequal legs
 50
0
999
Geneva
  0
INSERT
  8
LAYER1
  2
Group27
 10
0
 20
0
 30
0
  0
TEXT
  8
LAYER1
 62
     7
 10
2.7923
 20
3.0041
 30
0
 40
0.0833
  1
L 5x5x 5/8
 50
0
999
Geneva
  0
TEXT
  8
LAYER1
 62
     7
 10
2.3339
 20
2.8513
 30
0
 40
0.0833
  1
Angles-Equal/Unequal legs
 50
0
999
Geneva
  0
INSERT
  8
LAYER1
  2
Group30
 10
0
 20
0
 30
0
  0
TEXT
  8
LAYER1
 62
     7
 10
2.7923
 20
1.1013
 30
0
 40
0.0833
  1
L 5x3x 5/8
 50
0
999
Geneva
  0
TEXT
  8
LAYER1
 62
     7
 10
2.3339
 20
0.9346
 30
0
 40
0.0833
  1
Angles-Equal/Unequal legs
 50
0
999
Geneva
  0
INSERT
  8
LAYER1
  2
Group31
 10
0
 20
0
 30
0
  0
INSERT
  8
LAYER1
  2
Group32
 10
0
 20
0
 30
0
  0
TEXT
  8
LAYER1
 62
     7
 10
4.8617
 20
8.7263
 30
0
 40
0.0833
  1
L 4x4x 5/8
 50
0
999
Geneva
  0
TEXT
  8
LAYER1
 62
     7
 10
4.4034
 20
8.5735
 30
0
 40
0.0833
  1
Angles-Equal/Unequal legs
 50
0
999
Geneva
  0
INSERT
  8
LAYER1
  2
Group35
 10
0
 20
0
 30
0
  0
TEXT
  8
LAYER1
 62
     7
 10
4.7923
 20
6.8513
 30
0
 40
0.0833
  1
L 4x3.5x 3/8
 50
0
999
Geneva
  0
TEXT
  8
LAYER1
 62
     7
 10
4.4034
 20
6.6985
 30
0
 40
0.0833
  1
Angles-Equal/Unequal legs
 50
0
999
Geneva
  0
INSERT
  8
LAYER1
  2
Group38
 10
0
 20
0
 30
0
  0
TEXT
  8
LAYER1
 62
     7
 10
4.8617
 20
4.7124
 30
0
 40
0.0833
  1
L 4x3x 3/8
 50
0
999
Geneva
  0
TEXT
  8
LAYER1
 62
     7
 10
4.4034
 20
4.5458
 30
0
 40
0.0833
  1
Angles-Equal/Unequal legs
 50
0
999
Geneva
  0
INSERT
  8
LAYER1
  2
Group41
 10
0
 20
0
 30
0
  0
TEXT
  8
LAYER1
 62
     7
 10
4.7367
 20
3.0041
 30
0
 40
0.0833
  1
L 3.5x3.5x 3/8
 50
0
999
Geneva
  0
TEXT
  8
LAYER1
 62
     7
 10
4.4034
 20
2.8513
 30
0
 40
0.0833
  1
Angles-Equal/Unequal legs
 50
0
999
Geneva
  0
INSERT
  8
LAYER1
  2
Group44
 10
0
 20
0
 30
0
  0
TEXT
  8
LAYER1
 62
     7
 10
4.7923
 20
1.1013
 30
0
 40
0.0833
  1
L 3.5X3X 3/8
 50
0
999
Geneva
  0
TEXT
  8
LAYER1
 62
     7
 10
4.4034
 20
0.9346
 30
0
 40
0.0833
  1
Angles-Equal/Unequal legs
 50
0
999
Geneva
  0
INSERT
  8
LAYER1
  2
Group47
 10
0
 20
0
 30
0
  0
TEXT
  8
LAYER1
 62
     7
 10
9.0978
 20
8.7263
 30
0
 40
0.0833
  1
L 3.5X2.5X 3/8
 50
0
999
Geneva
  0
TEXT
  8
LAYER1
 62
     7
 10
8.7645
 20
8.5735
 30
0
 40
0.0833
  1
Angles-Equal/Unequal legs
 50
0
999
Geneva
  0
INSERT
  8
LAYER1
  2
Group50
 10
0
 20
0
 30
0
  0
TEXT
  8
LAYER1
 62
     7
 10
9.2228
 20
6.8513
 30
0
 40
0.0833
  1
L 3X3X 3/8
 50
0
999
Geneva
  0
TEXT
  8
LAYER1
 62
     7
 10
8.7645
 20
6.6985
 30
0
 40
0.0833
  1
Angles-Equal/Unequal legs
 50
0
999
Geneva
  0
INSERT
  8
LAYER1
  2
Group53
 10
0
 20
0
 30
0
  0
TEXT
  8
LAYER1
 62
     7
 10
9.1673
 20
4.7124
 30
0
 40
0.0833
  1
L 3X2.5X 3/8
 50
0
999
Geneva
  0
TEXT
  8
LAYER1
 62
     7
 10
8.7645
 20
4.5458
 30
0
 40
0.0833
  1
Angles-Equal/Unequal legs
 50
0
999
Geneva
  0
INSERT
  8
LAYER1
  2
Group56
 10
0
 20
0
 30
0
  0
TEXT
  8
LAYER1
 62
     7
 10
9.2228
 20
3.0041
 30
0
 40
0.0833
  1
L 3X2X 3/8
 50
0
999
Geneva
  0
TEXT
  8
LAYER1
 62
     7
 10
8.7645
 20
2.8513
 30
0
 40
0.0833
  1
Angles-Equal/Unequal legs
 50
0
999
Geneva
  0
INSERT
  8
LAYER1
  2
Group59
 10
0
 20
0
 30
0
  0
TEXT
  8
LAYER1
 62
     7
 10
9.0978
 20
1.1013
 30
0
 40
0.0833
  1
L 2.5X2.5X 3/8
 50
0
999
Geneva
  0
TEXT
  8
LAYER1
 62
     7
 10
8.7645
 20
0.9346
 30
0
 40
0.0833
  1
Angles-Equal/Unequal legs
 50
0
999
Geneva
  0
INSERT
  8
LAYER1
  2
Group62
 10
0
 20
0
 30
0
  0
TEXT
  8
LAYER1
 62
     7
 10
11.0839
 20
8.7263
 30
0
 40
0.0833
  1
L 2.5x2x 1/4
 50
0
999
Geneva
  0
TEXT
  8
LAYER1
 62
     7
 10
10.6811
 20
8.5735
 30
0
 40
0.0833
  1
Angles-Equal/Unequal legs
 50
0
999
Geneva
  0
INSERT
  8
LAYER1
  2
Group65
 10
0
 20
0
 30
0
  0
TEXT
  8
LAYER1
 62
     7
 10
11.1395
 20
6.8513
 30
0
 40
0.0833
  1
L 2x2x 1/4
 50
0
999
Geneva
  0
TEXT
  8
LAYER1
 62
     7
 10
10.6811
 20
6.6985
 30
0
 40
0.0833
  1
Angles-Equal/Unequal legs
 50
0
999
Geneva
  0
INSERT
  8
LAYER1
  2
Group68
 10
0
 20
0
 30
0
  0
TEXT
  8
LAYER1
 62
     7
 10
10.9311
 20
4.7124
 30
0
 40
0.0833
  1
L 1.75x1.75x 1/4
 50
0
999
Geneva
  0
TEXT
  8
LAYER1
 62
     7
 10
10.6811
 20
4.5458
 30
0
 40
0.0833
  1
Angles-Equal/Unequal legs
 50
0
999
Geneva
  0
INSERT
  8
LAYER1
  2
Group71
 10
0
 20
0
 30
0
  0
TEXT
  8
LAYER1
 62
     7
 10
11.0145
 20
3.0041
 30
0
 40
0.0833
  1
L 1.5x1.5x 1/4
 50
0
999
Geneva
  0
TEXT
  8
LAYER1
 62
     7
 10
10.6811
 20
2.8513
 30
0
 40
0.0833
  1
Angles-Equal/Unequal legs
 50
0
999
Geneva
  0
INSERT
  8
LAYER1
  2
Group74
 10
0
 20
0
 30
0
  0
TEXT
  8
LAYER1
 62
     7
 10
10.9311
 20
1.1013
 30
0
 40
0.0833
  1
L 1.25x1.25x 1/4
 50
0
999
Geneva
  0
TEXT
  8
LAYER1
 62
     7
 10
10.6811
 20
0.9346
 30
0
 40
0.0833
  1
Angles-Equal/Unequal legs
 50
0
999
Geneva
  0
INSERT
  8
LAYER1
  2
Group77
 10
0
 20
0
 30
0
  0
TEXT
  8
LAYER1
 62
     7
 10
12.8061
 20
8.7263
 30
0
 40
0.0833
  1
L 1.125x1.125x 1/8
 50
0
999
Geneva
  0
TEXT
  8
LAYER1
 62
     7
 10
12.6395
 20
8.5735
 30
0
 40
0.0833
  1
Angles-Equal/Unequal legs
 50
0
999
Geneva
  0
INSERT
  8
LAYER1
  2
Group80
 10
0
 20
0
 30
0
  0
TEXT
  8
LAYER1
 62
     7
 10
13.0978
 20
6.8513
 30
0
 40
0.0833
  1
L 1x1x 1/8
 50
0
999
Geneva
  0
TEXT
  8
LAYER1
 62
     7
 10
12.6395
 20
6.6985
 30
0
 40
0.0833
  1
Angles-Equal/Unequal legs
 50
0
999
Geneva
  0
LINE
  8
LAYER1
  6
CONTINUOUS
 62
     7
 10
13.4583
 20
7.2201
 30
0
 11
13.4722
 21
7.2339
 31
0
  0
LINE
  8
LAYER1
  6
CONTINUOUS
 62
     7
 10
8.6389
 20
10.8173
 30
0
 11
13.1389
 21
10.8173
 31
0
  0
TEXT
  8
LAYER1
 62
     7
 10
8.6395
 20
10.5735
 30
0
 40
0.125
  1
Angles - Equal/Unequal Legs
 50
0
999
Geneva
  0
TEXT
  8
LAYER1
 62
     7
 10
4.9311
 20
0.2541
 30
0
 40
0.0833
  1
©1992
 50
0
999
Geneva
  0
TEXT
  8
LAYER1
 62
     7
 10
4.2228
 20
0.0874
 30
0
 40
0.0833
  1
Advanced System Design, Inc.
 50
0
999
Geneva
  0
TEXT
  8
LAYER1
 62
     7
 10
0.195
 20
0.1013
 30
0
 40
0.0833
  1
Scale 1in = 1ft  Printed at 70%
 50
0
999
Geneva
  0
TEXT
  8
LAYER1
 62
     7
 10
13.2923
 20
0.2541
 30
0
 40
0.0833
  1
©1992
 50
0
999
Geneva
  0
TEXT
  8
LAYER1
 62
     7
 10
12.5839
 20
0.0874
 30
0
 40
0.0833
  1
Advanced System Design, Inc.
 50
0
999
Geneva
  0
TEXT
  8
LAYER1
 62
     7
 10
8.4867
 20
0.1013
 30
0
 40
0.0833
  1
Scale 1in = 1ft  Printed at 70%
 50
0
999
Geneva
  0
TEXT
  8
LAYER1
 62
     7
 10
0.8061
 20
8.4069
 30
0
 40
0.0833
  1
42700
 50
0
999
Geneva
  0
TEXT
  8
LAYER1
 62
     7
 10
2.9589
 20
8.4069
 30
0
 40
0.0833
  1
42701
 50
0
999
Geneva
  0
TEXT
  8
LAYER1
 62
     7
 10
5.0145
 20
8.4069
 30
0
 40
0.0833
  1
42702
 50
0
999
Geneva
  0
TEXT
  8
LAYER1
 62
     7
 10
0.8061
 20
6.5319
 30
0
 40
0.0833
  1
42703
 50
0
999
Geneva
  0
TEXT
  8
LAYER1
 62
     7
 10
2.9589
 20
6.5319
 30
0
 40
0.0833
  1
42704
 50
0
999
Geneva
  0
TEXT
  8
LAYER1
 62
     7
 10
5.0145
 20
6.5319
 30
0
 40
0.0833
  1
42705
 50
0
999
Geneva
  0
TEXT
  8
LAYER1
 62
     7
 10
0.8061
 20
4.3791
 30
0
 40
0.0833
  1
42706
 50
0
999
Geneva
  0
TEXT
  8
LAYER1
 62
     7
 10
2.9589
 20
4.3791
 30
0
 40
0.0833
  1
42707
 50
0
999
Geneva
  0
TEXT
  8
LAYER1
 62
     7
 10
5.0145
 20
4.3791
 30
0
 40
0.0833
  1
42708
 50
0
999
Geneva
  0
TEXT
  8
LAYER1
 62
     7
 10
0.8061
 20
2.6846
 30
0
 40
0.0833
  1
42709
 50
0
999
Geneva
  0
TEXT
  8
LAYER1
 62
     7
 10
2.9589
 20
2.6846
 30
0
 40
0.0833
  1
42710
 50
0
999
Geneva
  0
TEXT
  8
LAYER1
 62
     7
 10
5.0145
 20
2.6846
 30
0
 40
0.0833
  1
42711
 50
0
999
Geneva
  0
TEXT
  8
LAYER1
 62
     7
 10
0.8061
 20
0.7541
 30
0
 40
0.0833
  1
42712
 50
0
999
Geneva
  0
TEXT
  8
LAYER1
 62
     7
 10
2.9589
 20
0.7541
 30
0
 40
0.0833
  1
42713
 50
0
999
Geneva
  0
TEXT
  8
LAYER1
 62
     7
 10
5.0145
 20
0.7541
 30
0
 40
0.0833
  1
42714
 50
0
999
Geneva
  0
TEXT
  8
LAYER1
 62
     7
 10
9.3895
 20
8.4069
 30
0
 40
0.0833
  1
42715
 50
0
999
Geneva
  0
TEXT
  8
LAYER1
 62
     7
 10
11.3061
 20
8.4069
 30
0
 40
0.0833
  1
42716
 50
0
999
Geneva
  0
TEXT
  8
LAYER1
 62
     7
 10
13.2645
 20
8.4069
 30
0
 40
0.0833
  1
42717
 50
0
999
Geneva
  0
TEXT
  8
LAYER1
 62
     7
 10
9.3895
 20
6.5319
 30
0
 40
0.0833
  1
42718
 50
0
999
Geneva
  0
TEXT
  8
LAYER1
 62
     7
 10
11.3061
 20
6.5319
 30
0
 40
0.0833
  1
42719
 50
0
999
Geneva
  0
TEXT
  8
LAYER1
 62
     7
 10
13.2645
 20
6.5319
 30
0
 40
0.0833
  1
42720
 50
0
999
Geneva
  0
TEXT
  8
LAYER1
 62
     7
 10
9.3895
 20
4.3791
 30
0
 40
0.0833
  1
42721
 50
0
999
Geneva
  0
TEXT
  8
LAYER1
 62
     7
 10
11.3061
 20
4.3791
 30
0
 40
0.0833
  1
42722
 50
0
999
Geneva
  0
TEXT
  8
LAYER1
 62
     7
 10
9.3895
 20
2.6846
 30
0
 40
0.0833
  1
42723
 50
0
999
Geneva
  0
TEXT
  8
LAYER1
 62
     7
 10
11.3061
 20
2.6846
 30
0
 40
0.0833
  1
42724
 50
0
999
Geneva
  0
TEXT
  8
LAYER1
 62
     7
 10
9.3895
 20
0.7541
 30
0
 40
0.0833
  1
42725
 50
0
999
Geneva
  0
TEXT
  8
LAYER1
 62
     7
 10
11.3061
 20
0.7541
 30
0
 40
0.0833
  1
42726
 50
0
999
Geneva
  0
ENDBLK
  8
LAYER1
  0
ENDSEC
  0
SECTION
  2
ENTITIES
  0
INSERT
  8
LAYER1
  2
Group81
 10
0
 20
0
 30
0
  0
ENDSEC
  0
EOF
